» » »

State Of Fear Bass tabs (ver.1)

Artists:  A B C D E F G H I J K L M N O P Q R S T U V W X Y Z # 

State Of Fear Bass tabs (ver.1)

Useless Id
Rating:
5/5 (1 vote)

Hard to play? Try these video lessons and learn fast.
                +++++++++++++++++++++++++
Useless ID- State of Fear
+++++++++++++++++++++++++

EADG

Intro.
1.
G|---------------------------|
D|---------------------------|
A|---------------------------|
E|-444-----------------------|

2.
G|----------------------------------------|
D|----------------------------------------|
A|-4444-0000-2222-4444-0000-7777-2222-----|
E|------------------------------------4444|

3.
G|----------------------------------------|
D|----------------------------------------|
A|-4444-0000-2222-4444-0000-7777-2~-------|
E|------------------------------------4~--|

Verse
"State of fear.."
4.
G|---------------------------|
D|---------------------------|
A|-444x----------------------|
E|------------55555-00000----|

"Well, it seems.."
5.
G|---------------------------|
D|---------------------------|
A|-44444444444---------------|
E|------------55555-00000----|

Pre-Chorus
"When we all know the answers.."
6.
G|----------------------------------|
D|----------------------------------|
A|-----------------44444444---------|
E|-2222222-44444444--------44444444-|

"How did we end up.."
7.
G|----------------------------------|
D|----------------------------------|
A|-00000000-2222222-44444444-44-2-4-|
E|----------------------------------|

Verse
"Scream out loud!"
8.
G|---------------------------|
D|---------------------------|
A|-4~------------------------|
E|------------55555-00000----|

"The cycle.."
9.
G|---------------------------|
D|---------------------------|
A|-44444444444---------------|
E|------------55555-00000----|

Pre-Chorus
"When we all know the answers.."
10.
G|----------------------------------|
D|----------------------------------|
A|-----------------44444444---------|
E|-2222222-44444444--------44444444-|

"How did we end up this way..."
11.
G|----------------------------------|
D|----------------------------------|
A|-00000000-2222222-444-777-444-777-|
E|----------------------------------|

Pre-Chorus
"When conviction.."
12.
G|----------------------------------|
D|----------------------------------|
A|-----------------44444444---------|
E|-2222222-44444444--------44444444-|

"How did we end up this way.."
13.
G|----------------------------------|
D|----------------------------------|
A|-00000000-2222222-4~--------------|
E|----------------------------------|

Chorus:
"Dont wanna be part of it anyway.." x2
14.
G|----------------------------------------|
D|----------------------------------------|
A|-4444-0000-2222-4444-0000-7777-2222-----|
E|------------------------------------4444|

"With our hands held tight.."
15.
G|----------------------------------|
D|----------------------------------|
A|-44x-00x-22x-44x-00x-77x-22x------|
E|-----------------------------44x--|

"With our hands held tight.."
16.
G|----------------------------------|
D|----------------------------------|
A|-44x-00x-22x-44x-00x-77x-2~-------|
E|----------------------------4~----|

Play verse
Then Pre-Chorus
And then Chorus :D

2:12
17.         x3
G|-------------------------------------|
D|-------------------------------------|
A|-------------------------------------|
E|-22222222-44444444-55555555-77777777-|

"It happens again..."
18.
G|-------------------------------------|
D|-------------------------------------|
A|-44-444-400-0-22-244-444-400-0-22----|
E|-------------------------------------|

19.
G|----------------------------------|
D|----------------------------------|
A|-44-444-400-022-244-400-----------|
E|----------------------------------|

20.
G|-------------------------------------|
D|-------------------------------------|
A|-44-444-400-0-22-244-444-400-0-22----|
E|-------------------------------------|

21.
G|-------------------------------------|
D|-------------------------------------|
A|-44444444-0000-2222-44444444-0000-22-|
E|-------------------------------------|

22.
G|-----------------------------------------|
D|-----------------------------------------|
A|-44444444-0000-2222-44444444----------44~|
E|-----------------------------22x-444x----|

Rate ;)

+++++++++++++++++++++++++++++++++++++++
Lyrics:

State of fear, an explosion right outside my door.
Well, it seems there's a lot of profit to be made from war.

When we all know the answers, one question remains.
How did we end up this way?

Scream out loud. Let yourself be heard.
The cycle is never ending there's a lesson to be learned.

When conviction will break them apart.
How did we end up this way?

Don't want to be a part of it anyway,
I wasn't made to serve you in any way,
With our hands held tight No we're not going anywhere.
With our hands held tight No we're not going anywhere.

It happens again, like it happened before.
It happens again, no more.
It happens again, like it happened before.
It happens again, no more.

++++++++++++++++++++++++++++++++++++++++++

RaiLeff
            
Hard to play? Try these video lessons and learn fast. | Correct




comments powered by Disqus
↑ Back to top | Tablatures and chords are parodies/interpretations of the original songs. You may use it for private study, scholarship, research or language learning purposes only