» » »

Useless Id, Same Story, Someone New Bass tabs (ver.1)

Artists:  A B C D E F G H I J K L M N O P Q R S T U V W X Y Z # 

Same Story, Someone New Bass tabs (ver.1)

Useless Id Tabs
Rating:
0/5 (0 votes)
Hard to play? Try these video lessons and learn fast.
                +++++++++++++++++++++++++++++++++++++++
| Useless ID- Same Story, Someone New |
+++++++++++++++++++++++++++++++++++++++


"Sometimes on Valentine's, I get someone new in mind..."

Tuning: EADG


Intro
1.
G|--------------------------------------------------------------------------------|
D|--------------------------------------------------------------------------------|
A|-000000x------------2222222x------------1111111x----2222222-5555555x------------|
E|------------2222222-------------0000000---------------------------------0000000-|

2.
G|-------------------------------------------------------------------------------|
D|-------------------------------------------------------------------------------|
A|-000000x------------2222222x------------1111111x----2222222-5555555x-----------|
E|------------2222222-------------0000000------------------------------0~-00~-00-|

Verse
"Same story here it goes..."
3.
G|-------------------------------------------------------------------------|
D|-------------------------------------------------------------------------|
A|-00000000-------------------44444444-55555555----------0~-00~--0---------|--x2
E|----------00000000-22222222-------------------00000000-----------0000000-|

Chorus
"Sometimes on Valentine's..."
4.
G|-------------------------------------------------------------|
D|-------------------------------------------------------------|
A|-5-5-5555----------0000---------------5-5-5555---------------|
E|----------0-0-0000------0000-22222020----------0-0-0x--------|

Verse
"Same story here it goes..."
5.
G|-------------------------------------------------------------------------|
D|-------------------------------------------------------------------------|
A|-00000000-------------------44444444-55555555----------0~-00~--0---------|--x2
E|----------00000000-22222222-------------------00000000-----------0000000-|

Chorus
"The past repeats itself..."
6.
G|-------------------------------------------------------------------------------|
D|-------------------------------------------------------------------------------|
A|-5-5-5555----------0000---------------55555555-----------------------0000-4444-|
E|----------0-0-0000------0000-22222020----------0000x--------22222222-----------|

"Somehow with what I've got..."
7.
G|------------------------------------------------------------|
D|------------------------------------------------------------|
A|-5-5-5555----------00x----------------55555555--------------|
E|----------0-0-0000------00x--22222020----------00000x-------|

Bridge
8.
G|-----------------------------------------------------------------------------------|
D|-----------------------------------------------------------------------------------|
A|-5---5~----7---------4---4~--------------5---5~----7---------0000000---------------|
E|---5---------7-0~------4-------2-2-2~------5---------7-0~-----------2-2222x--------|

9.
G|-----------------------------------------------------------|
D|-----------------------------------------------------------|
A|-5---5~----7---------4---4~--------------55555555-77777777-|
E|---5---------7-0~------4-------2-2-2~----------------------|

Outro
"This concludes with my life..."
10.
G|--------------------------------------------------------------------------------|
D|--------------------------------------------------------------------------------|
A|-00000000------4444----555555-8888-7777---0000000------4444----555555-8888-7777-|
E|----------2222------------------------------------2222--------------------------|

"This concludes with my life..."
11.
G|--------------------------------------------------|
D|--------------------------------------------------|
A|--0000000------4x------555555-8888-7777-0~--------|
E|----------2222------------------------------------|


Please rate thank you!


Lyrics:

Same story here it goes, more hard times falling in love.
Even the best doesnt seem to please me.
A guardian angel left my broken heart in hell.
I thought I was over it, but I'm not.

Sometimes on Valentine's, I get someone new in mind.
I think I've fallen for the wrong girl.

That time of year again, when relationships all end.
I find myself with my friends alone again, feeling down on God Knows what?
I don't even care about doing the right thing too many times (when I should).

The past repeats itself.
The future brings me someone else.
I wish it was all different but, for now I'll manage.
Somehow with what I've got, hold to it till it's gone and mabye then I'll find the right one.

This concludes with my life and now I hope you get well soon.
mabye we'll meet again next year.
we'll all be here



+++++++++++++++++++++++++++++++++
| RaiLeff                       |
+++++++++++++++++++++++++++++++++
            

comments powered by Disqus
↑ Back to top | Useless Id Bass for Same Story, Someone New. Lyrics for acoustic guitar and electric guitar. Tablatures and chords are parodies/interpretations of the original songs. You may use it for private study, scholarship, research or language learning purposes only