» » »

Useless Id, Redemption Bass tabs (ver.1)

Artists:  A B C D E F G H I J K L M N O P Q R S T U V W X Y Z # 

Redemption Bass tabs (ver.1)

Useless Id Tabs
Rating:
0/5 (0 votes)
Redemption lessons Tabs too difficult? Try these video lessons and learn fast
                ++++++++++++++++++++++++++
| Useless ID- Redemption |
++++++++++++++++++++++++++

Tuning: EADG


Intro
1.
G|-----------------------|
D|-----------------------|
A|-222-0x----------------|
E|----------333-2x---2-3-|

Verse
"Run away!!"
2.
G|-------------------------------------------------------------------------|
D|-------------------------------------------------------------------------|
A|-------------------------------------------------------------------------|
E|-00000000-00000000-33333333-33333333-00000000-00000000-33333333-33333333-|

"You've been in decline for far too long..."
3.
G|-----------------------------------------------------------------------------|
D|-----------------------------------------------------------------------------|
A|-33333333-33333333-00000000-00000000-------------------222-0x----------------|
E|-------------------------------------00000000-00000000----------333-2x---2-3-|

"Seven days!!"
4.
G|-------------------------------------------------------------------------|
D|-------------------------------------------------------------------------|
A|-------------------------------------------------------------------------|
E|-00000000-00000000-33333333-33333333-00000000-00000000-33333333-33333333-|

"Its over when you reach the other side..."
5.
G|-------------------------------------------------------------------------|
D|-------------------------------------------------------------------------|
A|-33333333-33333333-00000000-00000000-77777777-77777777-55555555-5x-------|
E|-------------------------------------------------------------------------|

Chorus
"Dont wait around for someone..."
6.
G|-------------------------------------------------------------------------|
D|-------------------------------------------------------------------------|
A|-33333333-33333333-55555555-55555555-------------------33333333-33332222-|
E|-------------------------------------33333333-33333333-------------------|

"The weight you had to carry..."
7.
G|-------------------------------------------------------------------------|
D|-------------------------------------------------------------------------|
A|-00000000-00000000-55555555-55555555-------------------------------------|
E|-------------------------------------33333333-33333333-00000000-00000000-|

"Its not too late to save you now..."
8.
G|-------------------------------------------------------------------------|
D|-------------------------------------------------------------------------|
A|-33333333-33333333-55555555-55555555-22222222-22222222-------------------|
E|-------------------------------------------------------00000000-00000000-|

"You'll have to make it on your own..."
9.
G|------------------------------------------------------|
D|------------------------------------------------------|
A|-00000000-00000000-55555555-55555555-7~---------------|
E|------------------------------------------------------|

Outro
10.
G|-----------------------|
D|-----------------------|
A|-222-0x----------------|
E|----------333-2x---2-3-|

Verse
"Run away!!"
11.
G|-------------------------------------------------------------------------|
D|-------------------------------------------------------------------------|
A|-------------------------------------------------------------------------|
E|-00000000-00000000-33333333-33333333-00000000-00000000-33333333-33333333-|

"You will survive..."
12.
G|----------------------------------------------------------------|
D|----------------------------------------------------------------|
A|-33333333-33333333-00000000-00000000-------------------5x-------|
E|-------------------------------------00000000-00000000----------|

Chorus
"Dont wait around for someone..."
13.
G|-------------------------------------------------------------------------|
D|-------------------------------------------------------------------------|
A|-33333333-33333333-55555555-55555555-------------------33333333-33332222-|
E|-------------------------------------33333333-33333333-------------------|

"The weight you had to carry..."
14.
G|-------------------------------------------------------------------------|
D|-------------------------------------------------------------------------|
A|-00000000-00000000-55555555-55555555-------------------------------------|
E|-------------------------------------33333333-33333333-0~-0-0-0~-0-0~-0~-|

"Its not too late to save you now..."
15.
G|-----------------------------------------------------------------|
D|-----------------------------------------------------------------|
A|-3~-3-3-3-3x---5~-5-5-5-5x---22222222-22222222-------------------|
E|-----------------------------------------------00000000-00000000-|

"You'll have to make it on your own..."
16.
G|-------------------------------------|
D|-------------------------------------|
A|-00000000-00000000-55555555-55555555-|
E|-------------------------------------|

Outro
17.
G|-------------------------------------------------------------------------|
D|-------------------------------------------------------------------------|
A|-7~----------------7~----------------3~----------------3~----------------|
E|-------------------------------------------------------------------------|

Bridge
"Can you dig a tunnel through the wall..."
18.
G|-------------------------------------------------------------------------------------|
D|-------------------------------------------------------------------------------------|
A|-------------------------------------------3~-3x-----------------3~-3x---------------|
E|-0~-0x----------------0~-0x----------------------------------------------------------|

"Can you dig a tunnel through the wall..."
19.
G|-------------------------------------------------------------------------------------|
D|-------------------------------------------------------------------------------------|
A|----------2~-0~--------------------2~-0~-----------3~-3~----2~-0~-----------3~-3~----|
E|-0~-0~----------3~--2-3-2-0~-0~----------3~--2-3-2----------------3~--2-3-2----------|

20.
G|-------------------------------------------------------------------------|
D|-------------------------------------------------------------------------|
A|-------------------------------------------------------------------------|
E|-00000000-00000000-00000000-00000000-00000000-00000000-00000000-00000000-|

21.
G|-------------------------------------------------------------------------|
D|-------------------------------------------------------------------------|
A|-33333333-33333333-33333333-33333333-33333333-33333333-3x----------------|
E|-------------------------------------------------------------------------|

22.
G|-------------------------------------------------------------------------|
D|-------------------------------------------------------------------------|
A|-------------------------------------------------------------------------|
E|-00000000-00000000-00000000-00000000-00000000-00000000-00000000-00000000-|

23.
G|-------------------------------------------------------------------------|
D|-------------------------------------------------------------------------|
A|-33333333-33333333-33333333-33333333-------------------------------------|
E|-------------------------------------33333333-33333333-22222222-2x-------|

Chorus
"Dont wait around for someone..."
24.
G|-------------------------------------------------------------------------|
D|-------------------------------------------------------------------------|
A|-33333333-33333333-55555555-55555555-------------------33333333-33332222-|
E|-------------------------------------33333333-33333333-------------------|

"The weight you had to carry..."
25.
G|-------------------------------------------------------------------------|
D|-------------------------------------------------------------------------|
A|-00000000-00000000-55555555-55555555-------------------------------------|
E|-------------------------------------33333333-33333333-00000000-0~-------|

"Its not too late to save you now..."
26.
G|----------------------------------------------------------------------------|
D|----------------------------------------------------------------------------|
A|-33333333-33333333-55555555-55555555-22222222-22222222-33333333-33333-3-3-3-|
E|----------------------------------------------------------------------------|

"For eternity"
27.
G|------------------------------------|
D|------------------------------------|
A|-3~-------5~------------------------|
E|-------------------0~---------------|

Lyrics:

Run away. It's time to break the silence.
You've been in decline for far to long
Seven days you lie awake at night
It's over when you reach the other side.

Don't wait around for someone to leave behind the weight you had to carry
That day may never come.
It's not to late to save you now.
you'll have to make it on your own.

Run away this time,
not a fear inside you will survive,
hope will set you free

Can you dig a tunnel through the wall? help yourself find a way out.
find a way out.

Can you dig a tunnel through the wall? Sing the song of redemption.

Don't wait around for someone to leave behind the weight you had to carry
That day may never come.
It's not to late to save you now.
For eternity.

+++++++++++++++++++++++++++++++++
| RaiLeff                       |
+++++++++++++++++++++++++++++++++
            
Submit corrections

comments powered by Disqus
↑ Back to top | Useless Id Bass for Redemption. Lyrics for acoustic guitar and electric guitar. Tablatures and chords are parodies/interpretations of the original songs. You may use it for private study, scholarship, research or language learning purposes only