» » »

Useless Id, Presents Bass tabs (ver.1)

Artists:  A B C D E F G H I J K L M N O P Q R S T U V W X Y Z # 

Presents Bass tabs (ver.1)

Useless Id Tabs
 Rating:
4/5 (4 votes)
Presents lessons Tabs too difficult? Try these video lessons and learn fast
1
                ++++++++++++++++++++++++
| Useless ID- Presents |
++++++++++++++++++++++++

Tuning: EADG

Intro
"Question who is it?
1.
G|---------------------------------------------|
D|---------------------------------------------|
A|---------------------------------------------|
E|---------------------------------------------|

2.
G|-------------------------------------|
D|-------------------------------------|
A|-55-55x----55-55x--------44-4-55-55x-|
E|---------------------22-2------------|

3.
G|------------------------------------|
D|------------------------------------|
A|--------------------------0~--------|
E|-33-333-322-222-200-000-0-----------|

Verse
"Amazing how she walked into my life..."
4.
G|-------------------------------------------------------------------------|
D|-------------------------------------------------------------------------|
A|-55555555-------------------00000000----------22222222----------00000000-|
E|----------22222222-33333333----------22222222----------33333333----------|

"Its all over, she gave me presents..."
5.
G|-------------------------------------------------------------------------|
D|-------------------------------------------------------------------------|
A|-55555555-------------------00001111-22222222-------------------00000000-|
E|----------22222222-33333333-------------------22222222-33333333----------|

Chorus
"She took her guess..."
6.
G|-------------------------------------------------------------------------|
D|-------------------------------------------------------------------------|
A|---------2-2222222---------0-0000000---------2-2222222---------0-0000000-|
E|-2-22222-----------3-33333-----------2-22222-----------3-33333-----------|

"She was my queen..."
7.
G|------------------------------------------------|
D|------------------------------------------------|
A|-----4x--22-222-2--------00-000-055-555-55x--5x-|
E|-2x--------------33-333-3-----------------------|

Verse
"The same, too long and Im still playing games..."
8.
G|-------------------------------------------------|
D|-------------------------------------------------|
A|-------------0~----2~----------------2~----0~----|--x2
E|-2~----3~----------------2~----3~----------------|

1:10
Verse
"Running away to this land far away..."
9.
G|-------------------------------------------------2--2--2x-|
D|----------------------------------------------------------|
A|--------------------------------------------------00-00---|
E|-------------------------------What-if-they-were-true?----|

"Fantasies, pretend shes alice in wonderland..."
10.
G|----------------------------------------------------------|
D|----------------------------------------------------------|
A|----------------0x-1x-22222222-------------------00000000-|
E|-------------------------------22222222-33333333----------|

Outro
11.
G|-------------------------------------------------------------------|
D|-------------------------------------------------------------------|
A|-55-555-555-555-500-000-000-000-0x--222-222-222-2------------------|
E|-------------------------------------------------33-333-333-333-3x-|

12.
G|------------------------------------------------------------------------------|
D|------------------------------------------------------5~----------------------|
A|-55-555-555-555-5x------------------------------------------------------5~\1x-|
E|--------------------222-222-222-2x--333-333-333-333-3-------3~-2~-0~----------|

Lyrics:

Question: who is it?
the chance to relive it again

Amazing how she walked into my life
The door was open maybe all the way
What a sad day

It's all over, she gave me presents
I'm still writing songs about her
what am I thinking?

She took her guess
And I stood this long test
She was my queen
Never to be seen

The same, too long and I'm still playing games
What's up? always saying goodbye
nothing new waits for me straight in view
just yesterday's news

Running away to this land far away
Exists only in my dreams
What if it were true

Fantasies, pretend
She's alice in wonderland
It's hard now to say that I fell in love with you

+++++++++++++++++++++++++++++++++
| RaiLeff                       |
+++++++++++++++++++++++++++++++++
            
Submit corrections

comments powered by Disqus
↑ Back to top | Useless Id Bass for Presents. Lyrics for acoustic guitar and electric guitar. 1 Tablatures and chords are parodies/interpretations of the original songs. You may use it for private study, scholarship, research or language learning purposes only