» » »

Useless Id, Pink Stars And Magazines Bass tabs (ver.1)

Artists:  A B C D E F G H I J K L M N O P Q R S T U V W X Y Z # 

Pink Stars And Magazines Bass tabs (ver.1)

Useless Id Tabs
Rating:
5/5 (1 vote)
Pink Stars And Magazines lessons Tabs too difficult? Try these video lessons and learn fast
                ++++++++++++++++++++++++++++++++++++++++
| Useless ID- Pink Stars And Magazines |
++++++++++++++++++++++++++++++++++++++++

Tuning: EADG

One two three four!!


Intro
1.
G|----------------------------------------------------------------------------|
D|----------------------------------------------------------------------------|
A|-5-55-2-22-1-11------5-55-2-22-1-11------5-55-2-22-1-11------5x--2x--1x-----|
E|----------------3333----------------3333----------------3333----------------|

Verse
"Pink stars and magazines, your latest issue..."
2.
G|----------------------------------------------------------------------------|
D|----------------------------------------------------------------------------|
A|-5-55-2-22-1-11------5-55-2-22-1-11------5-55-2-22-1-11------5-55-2-22-1x---|
E|----------------3333----------------3333----------------3333----------------|

"Tatoo my name into your heart and smile..." 
3.
G|--------------------------------------------------------------------------------|
D|--------------------------------------------------------------------------------|
A|-5-55-2-22-1-11------5-55-2-22-1-11------5-55-2-22-1-11------55x--22x--11x------|
E|----------------3333----------------3333----------------3333--------------------|

Chorus
"Now that I threw all my medicine away..."
4.
G|-----------------------------------------------------|
D|-------------------0-2-0-----2-4---------------------|
A|----------00000000-------4-2-----4----------00000000-|
E|-33333333--------------------------33333333----------|

Outro
5.
G|-----------------------------------------|
D|-----------------------------------------|
A|-5-55-2-22-1-11------5-55-2-22-1-11------|
E|----------------3333----------------3333-|

Verse
"These rotting butterflies dwell in your stomach..."
6.
G|------------------------------------------------------------------------------------|
D|------------------------------------------------------------------------------------|
A|-5-55-2-22-1-11------5-55-2-22-1-11------5-55-2-22-1-11------5-55-2-22-111111111111-|
E|----------------3333----------------3333----------------3333------------------------|

"You're living your life in a lie..."
7.
G|--------------------------------------------------------------------------------|
D|--------------------------------------------------------------------------------|
A|-5-55-2-22-1-11------5-55-2-22-1-11------5-55-2-22-1-11------55x--22x-----------|
E|----------------3333----------------3333----------------3333--------------------|

Chorus
"Now that I threw all my medicine away..."
8.
G|-----------------------------------------------------------------------|
D|-------------------0-2-0-----2-4---------------------00000000----------|
A|----------00000000-------4-2-----4----------00000000----------33333333-|
E|-33333333--------------------------33333333----------------------------|

"The damage is done..."
9.
G|---------------------------------------------------|
D|-------------2-----4-5-7---4-0---------------------|
A|---2-5---0-4---0-5-------2-----2----------00000000-|
E|-3-----3-------------------------33333333----------|

Bridge
10.
G|-------------------------------------------------------------------------|
D|-------------------------------------------------------------------------|
A|-5-55-----------1111-5-55-----------1111-5x----------1x--5x----------1-1-|
E|------2-22-3-33-----------2-22-3-33----------2x--3x----------2x--3-3-----|

11.
G|----------------------------------------------------------------------|
D|----------------------------------------------------------------------|
A|-5-5---------1111-5-5---------1111-5555-----------1111-5x----------1x-|
E|-----2-2-3-3----------2-2-3-3-----------2222-3333----------2x--3-3----|

Chorus
"Now that I threw all my medicine away..."
12.
G|-----------------------------------------------------------------------|
D|-------------------0-2-0-----2-4---------------------0x----------------|
A|----------00000000-------4-2-----4----------00000000----------3x-33-33-|
E|-33333333--------------------------33333333----------------------------|

"The damage is done..."
13.
G|---------------------------------------------------|
D|-------------2---0x--------------------------------|
A|---2-5---0-4---0-----3x--2x--0~-----------11111111-|
E|-3-----3-------------------------33333333----------|

Outro
"At all, dont follow me around..."
14.
G|------------------------------------------------------------------------------|
D|------------------------------------------------------------------------------|
A|-5555-----------1111-5555-----------1111-5555-----------1111-5x------------5x-|
E|------2222-3333-----------2222-3333-----------2222-3333----------2x--3x-------|


Lyrics:

Pink stars and magazines, your latest issue
Save me the drama queen for one day
Tattoo my name into your heart and smile
Obsession is your only way

Now that I threw all my medicine away,
Ill never knock on your door again

These rotting butterflies dwell in your stomach
When it comes to you I have no conscience
You're living your life in a lie,
You're living your life in a lie
This sweet candy is dirty from the inside

Now that I threw all my medicine away,
Ill never knock on your door again
The damage is done we'll never be a part of anything,
Anything at all 
Dont follow me around

+++++++++++++++++++++++++++++++++
| RaiLeff                       |
+++++++++++++++++++++++++++++++++
            
Submit corrections

comments powered by Disqus
↑ Back to top | Useless Id Bass for Pink Stars And Magazines. Lyrics for acoustic guitar and electric guitar. Tablatures and chords are parodies/interpretations of the original songs. You may use it for private study, scholarship, research or language learning purposes only