» » »

Perfect Life Bass tabs (ver.1)

Artists:  A B C D E F G H I J K L M N O P Q R S T U V W X Y Z # 

Perfect Life Bass tabs (ver.1)

Useless Id
Rating:
0/5 (0 votes)

Hard to play? Try these video lessons and learn fast.
                ++++++++++++++++++++++++++++
| Useless ID- Perfect Life |
++++++++++++++++++++++++++++


"And now he's all alone..."

Tuning: Half A Step Down (EbADG)


Intro
1.
G||-------------------------------------------------------|
D||-------------------------------------------------------|
A||-22-222-244-444-4--------------------22-222-24x--------|
Eb|-----------------00-000-0-3-3-3-2x---------------------|

Verse
"Graduated college succesfully..."
2.
G||------------------------------------------------------------------|
D||-11-111-1------------------------11-111-1-------------------------|
A||-----------------22-222-244-444-4----------------22-222-244-444-4-|
Eb|---------33-333-3------------------------33-333-3-----------------|

"He never realized why..."
3.
G||------------------------------------------------------------------|
D||-11-111-1------------------------11-111-144-444-4-----------------|
A||-----------------22-222-244-444-4----------------2x------4x-------|
Eb|---------33-333-3-------------------------------------------------|

"Dedicating every hour..."
4.
G||-------------------------------------------------44-444-4-3-1-----|
D||-11-111-1------------------------11-111-144-444-4-------------4-3-|
A||-----------------22-222-244-444-4---------------------------------|
Eb|---------33-333-3-------------------------------------------------|

"Looking back on his youth..."
5.
G||------------------------------------------------------------------|
D||-11-111-1------------------------11-111-1-------------------------|
A||-----------------22-222-244-444-4----------------22-222-244444444-|
Eb|---------33-333-3------------------------33-333-3-----------------|

Chorus
"And now he's all alone..."
6
G||-------------------------------------------------------------------------|
D||---8----8----5----3--------------------8----8----5----3------------------|
A||-6---55--3-3---11--------------------6---55--3-3---11--------------------|
Eb|--------------------5-5-5557-7777777--------------------5-5-5557-7777777-|


Lyrics:


Graduated college successfully
At the age of 21
Yeah, it's time to conquer the world
And money is his goal

He never realized why
He didn't give a second though
About how he's going to spend his life
Dedicating every hour, every day

Now he's 45, got a lot of money, but for what?
Looking back on his youth and thinking
"Well, I couldn't have had much more"
But now, tell me, what does he got?
Nothing!

And now's he's all alone
No one waits for him at home
Yeah, now he's all alone



+++++++++++++++++++++++++++++++++
| RaiLeff                       |
+++++++++++++++++++++++++++++++++
            
Hard to play? Try these video lessons and learn fast. | Correct




comments powered by Disqus
↑ Back to top | Tablatures and chords are parodies/interpretations of the original songs. You may use it for private study, scholarship, research or language learning purposes only