>
 >
Lonely Heart

Lonely Heart Bass Tabs

Useless Id - Lonely Heart chords, tabs, tablatures, lyrics

Guitar lessons | Add/correct | Request | Top 50 tabs Artists:  A B C D E F G H I J K L M N O P Q R S T U V W X Y Z 0-9

Lonely Heart Bass Tabs – Useless Id

CD, Sheet music, Poster

Do you like Lonely Heart? Share with your friends now
Bass Tabs
++++++++++++++++++++++++++++
| Useless ID- Lonely Heart |
++++++++++++++++++++++++++++


"Still think that I wont find whats locked up deep inside..."

Tuning: Half a Step Down (EbADG)


Intro
1.
G||---------------------------------------------------------------------------------|
D||-----------0000----------------0000----------------0000----------------0000------|
A||------1111----------------1111----------------1111----------------1111-----------|
Eb|-4444-----------2222-4444-----------2222-4444-----------2222-4444-----------2222-|

2.
G||------------------------------------------------------------------|
D||---------------------------------00-000-000-000-0--------00-000-0-|
A||-----------------11-111-111-111-1---------------------------------|
Eb|-44-444-444-444-4--------------------------------22-222-2---------|

3.
G||--------------------------------------------------------------------|
D||---------------------------------00-000-000-000-0--------00-000-0---|
A||-----------------11-111-111-111-1-----------------------------------|
Eb|-44-444-444-444-4--------------------------------22-222-2--------4x-|

Verse
"Grab me I cant see you falling down..."
4.
G||-------------------------------------------------------------------------|
D||-------------------------------------00000000-00000000----------00000000-|
A||-------------------11111111-11111111-------------------------------------|
Eb|-44444444-44444444-------------------------------------22222222----------|

"It will be a big mistake..."
5.
G||----------------------------------------------------------------------------|
D||-------------------------------------00000000-00000000----------00000000----|
A||-------------------11111111-11111111----------------------------------------|
Eb|-44444444-44444444-------------------------------------22222222----------4x-|

Chorus
"Cause I can take a look straight at your eyes..."
6.
G||--------------------------------------------------------------|
D||--------------------------------------------------------------|
A||-66-666-666-666----------------66-666-666-666-----------------|
Eb|----------------44-444-444-444----------------444-444-222-222-|

"Still think that I wont mind..."
7.
G||------------------------------------------------------------------------|
D||---------------------------------------------------------------00003333-|
A||------------------------------------------------------------------------|
Eb|-00000000-00000-2-44444444-44444444-22222222-22222222-00000000----------|

Outro
"Lonely heart..."
8.
G||------------------------------------------------------------------|
D||---------------------------------00-000-000-000-0--------00-000-0-|
A||-----------------11-111-111-111-1---------------------------------|--x2
Eb|-44-444-444-444-4--------------------------------22-222-2---------|

9.
G||------------------------------------------------------------------|
D||------------------------------------------------------------------|
A||---------------------------------11-111-111-111-1-----------------|
Eb|-44-444-444-444-400-000-000-000-0----------------22-222-222-222-2-|

10.
G||-------------------------------------------------------------------|
D||-------------------------------------------------33333333-331100---|
A||---------------------------------11-111-111-111-1---------------33-|
Eb|-44-444-444-444-400-000-000-000-0----------------------------------|

11.
G||------------------------------------------------------------------------|
D||------------------------------------------------------------------------|
A||------------------------------------1~----------------------------------|
Eb|-4~---------------0~----------------------------------2~----------------|

12.
G||-----------------------------------|
D||-----------------------------------|
A||-----------------------------------|
Eb|-4~--------------------------------|


Lyrics:


Grab me I can't see you falling down 
leave all the past behind 
nothing can not stop us don't look back 

It will be a big mistake just a waste of time, 
for us there is no future unless 
you will try 

Cause I can take a look straight at your eyes 
But you can't take a look at mine 
You will just keep on telling me, telling me lies
Still think that I wont mind
Still think that I wont find
What's locked up deep inside 
Inside your lonely heart



+++++++++++++++++++++++++++++++++
| RaiLeff                       |
+++++++++++++++++++++++++++++++++





Comments


Popular Useless Id tabs & chords
At Least I Tried Chords
It's Alright 1 Chords
Misconception Chords
Out Of Tune Chords
Same Story, Someone New Chords
Stuck Without A Ride Chords
Out Of Tune Tabs
Working Jerk Tabs
Out Of Tune Ukulele
Pink Stars And Magazines Ukulele


Song lyrics



↑ Back to top | Tablatures and chords are parodies/interpretations of the original songs. You may use it for private study, scholarship, research or language learning purposes only
© 2014 AZChords.com Contact us | Privacy policy | DMCA | Add/correct tabs | Request tabs | Top 50 tabs