» » »

Just Friends Bass tabs (ver.1)

Artists:  A B C D E F G H I J K L M N O P Q R S T U V W X Y Z # 

Just Friends Bass tabs (ver.1)

Useless Id
Rating:
0/5 (0 votes)

Hard to play? Try these video lessons and learn fast.
                ++++++++++++++++++++++++++++
| Useless ID- Just Friends |
++++++++++++++++++++++++++++

Tuning: EADG


Intro
1.
G|-------------------------------------------------------------------------|
D|-------------------------------------------------------------------------|
A|-5-5-555-------------------5-55-5555-1-1-111-2-22-2222---------0-00-0000-|--x2
E|---------2-22-2222-3-3-333-----------------------------3-3-333-----------|

Verse
"Its good night, it was nice..."
2.
G|-----------------------------------------------------------|
D|-----------------------------------------------------------|
A|-5x--------------------------------------------------------|
E|-----------------------------------------------------------|

"I would like to tell you..."
3.
G|---------------------------------------------------------------|
D|---------------------------------------------------------------|
A|-554-5555555-2220-22222222-------------------------------------|
E|---------------------------00000000-00000000-55555555-55555555-|

Chorus
"A force and shield is over you..."
4.
G|------------------------------------------------------------------------|
D|------------------------------------------------------------------------|
A|--------5-555-5555-0-0-00-2-222-2222--------5-555-5555-1-1-11-2--7-5-4x-|
E|-3-3-33------------------------------3-3-33-----------------------------|

"Im falling for you once again..."
5.
G|---------------------------------------------------------------|
D|---------------------------------------------------------------|
A|--------5-555-5555-0-0-00-2-222-2222---------------------------|
E|-----33------------------------------3-3-33-4-44-444-5-5555-6x-|

Outro
6.
G|-------------------------------------------------------------------------|
D|-------------------------------------------------------------------------|
A|-5-5-555-------------------5-55-5555-1-1-111-2-22-2222---------0-00-0000-|--x2
E|---------2-22-2222-3-3-333-----------------------------3-3-333-----------|

Verse
"You think it was such a right thing..."
7.
G|----------------------------------------------------------------------------|
D|----------------------------------------------------------------------------|
A|-55555555-55555555-22222222-22222222----------------------------------------|
E|-------------------------------------33333333-33333333-55555555-5-5-5-5555x-|

"Still sincere to someone I cant hear about..."
8.
G|--------------------------------------------------------------|
D|--------------------------22222222-22222222-------------------|
A|-554-5555555-2220-2222222-------------------00000000-00000000-|
E|--------------------------------------------------------------|

Chorus
"You're doing fine with someone else..."
9.
G|------------------------------------------------------------------------|
D|------------------------------------------------------------------------|
A|--------5-555-5555-0-0-00-2-222-2222--------5-555-5555-1-1-11-2--7-5-4x-|
E|-3-3-33------------------------------3-3-33-----------------------------|

"But I can try it for a change..."
10.
G|---------------------------------------------------------------------|
D|---------------------------------------------------------------------|
A|--------5-555-5555-0-0-00-2-222-2222---------------------------------|
E|-----33------------------------------3-3-33-4-44-444-5-5555-66666666-|

Outro
11.
G|--------------------------------------------------------|
D|--------------------------------------------------------|
A|-2x-2x-2x-0x----5x-5x-5x----2-2-222-0-0-0000-5x-5x-5~---|
E|-------------------------3x-----------------------------|

12.
G|---------------------------------------------------|
D|---------------------------------------------------|
A|-2x-2x-2x-0x----5x-5x-5x----2-2-222-0-0-0000-5x-0x-|
E|-------------------------3x------------------------|

Bridge
13.
G|--------------------------------------------------------------------------|
D|--------------------------------------------------------------------------|
A|-------------------5-5-5555-555-5555-1-1-1111-111-1111-2-2-222-2-2222-5-4-|
E|-3-3-3333-333-3333--------------------------------------------------------|

14.
G|------------------------------------------------------------------|
D|------------------------------------------------------------------|
A|-------------------5-5-5555-555-5555-1-1-1111-111-1111-2-2-222-2x-|
E|-3-3-3333-333-3333------------------------------------------------|

"Na na na na..."
15.
G|--------------------------------------------------------------------------|
D|--------------------------------------------------------------------------|
A|-------------------5-5-5555-555-5555-1-1-1111-111-1111-2-2-222-2-2222-5-4-|
E|-3-3-3333-333-3333--------------------------------------------------------|

16.
G|-------------------------------------------------------------------|
D|-------------------------------------------------------------------|
A|-------------------5-5-5555-555-5555-1-1-1111-111-1111-2~-0~-------|
E|-3-3-3333-333-3333-------------------------------------------3~----|

Lyrics:

It's good night, it was nice
There are so many things
I would like to tell you
Feelings caved for a while now

A force and shield is over you
And we both know that it is true
I'm falling for you once again
But it's hard when we are just friends

You think it was such a right thing
What has been going on half a year
Still sincere to someone I can't hear about

You're doing fine with someone else
It ain't the same as being in love
But I can try it for a change
Still it's hard when we are just friends

A blast of affection when you're around
Talking for hours, it's obvious that a match was found

+++++++++++++++++++++++++++++++++
| RaiLeff                       |
+++++++++++++++++++++++++++++++++
            
Hard to play? Try these video lessons and learn fast. | Correct




comments powered by Disqus
↑ Back to top | Tablatures and chords are parodies/interpretations of the original songs. You may use it for private study, scholarship, research or language learning purposes only