» » »

Useless Id, Jukebox Bass tabs (ver.2)

Artists:  A B C D E F G H I J K L M N O P Q R S T U V W X Y Z # 

Jukebox Bass tabs (ver.2)

Useless Id Tabs
 Rating:
4/5 (4 votes)
Jukebox lessons Tabs too difficult? Try these video lessons and learn fast
                "(6)
++++++++++++++++++++++++++
| Useless ID- Jukebox 86 |
++++++++++++++++++++++++++


"Every time I hear them, it takes me back home..."

Tuning: Standard EADG


Intro
1.
G|-------------|
D|-------------|
A|-5~----0~----|
E|-------------|

Verse
"Take me to a place..."
2.
G|--4---4---6---6---2---2---2---2---4---4---6---6---2---2---2---2---|
D|-2--22--24--44--40--00--00--00--02--22--24--44--40--00--00--00--0-|
A|------------------------------------------------------------------|
E|------------------------------------------------------------------|

"Sit outside with all my best friends..."
3.
G|----------------------------------------------------------------|
D|-----------------00-000-000-000-0----------------00-000-000-----|
A|------------------------------------------------------------5-4-|
E|-00-000-022-222-2----------------00-000-022-222-2---------------|

Pre-Chorus
"Come around the block..."
4.
G|-------------------------------------------------------------------|
D|-----------------2~-------22---------------------------------------|
A|-2~----2-4-5-4-2-------------5-4-2~----2-4-5-4-2-------------------|
E|-----------------------00------------------------00-000-00x--------|

Chorus
"So how are you..."
5.
G|------------------------------------------------------------------|
D|------------------------------------------------------------------|
A|-00-000-0----------------55-555-500-000-0----------------55-555-5-|
E|---------00-000-022-222-2----------------00-000-022-222-2---------|

"Mom and Dad broke up..."
6.
G|------------------------------------------------------------------|
D|------------------------------------------------------------------|
A|-00-000-0----------------55-555-500x---------------------55-555-5-|
E|---------00-000-022-222-2----------------00x-----22-222-2---------|

Verse
"Jukebox full of memories..."
7.
G|------------------------------------------------------------------|
D|-----------------00-000-000-000-0----------------00-000-000-000-0-|
A|------------------------------------------------------------------|
E|-00-000-022-222-2----------------00-000-022-222-2-----------------|

"What happened to the excitement..."
8.
G|----------------------------------------------------------------|
D|-----------------00-000-000-000-0----------------00-000-000-----|
A|------------------------------------------------------------5-4-|
E|-00-000-022-222-2----------------00-000-022-222-2---------------|

Pre-Chorus
"Come around the block..."
9.
G|-------------------------------------------------------------------|
D|-----------------2~-------22---------------------------------------|
A|-2~----2-4-5-4-2-------------5-4-2~----2-4-5-4-2-------------------|
E|-----------------------00------------------------00-000-00x--------|

Chorus
"So how are you..."
10.
G|------------------------------------------------------------------|
D|------------------------------------------------------------------|
A|-00-000-0----------------55-555-500-000-0----------------55-555-5-|
E|---------00-000-022-222-2----------------00-000-022-222-2---------|

"Mom and Dad broke up..."
11.
G|------------------------------------------------------------------|
D|------------------------------------------------------------------|
A|-00-000-0----------------55-555-500x---------------------55-555-5-|
E|---------00-000-022-222-2----------------00x-----22-222-2---------|

Bridge
12.
G|---4--4-4---6--6-6---2--1-1---2--1-1---4--4-4---6--6-6---2--1-1---2--1-1-|
D|-22-22-2--44-44-4--00-00-0--00-00-0--22-22-2--44-44-4--00-00-0--00-00-0--|
A|-------------------------------------------------------------------------|--x2
E|-------------------------------------------------------------------------|

"Everytime I hear them..."
13.
G|---4--4-4---6--6-6---2--1-1---2--1-1---4--4-4---6--6-6-------------------|
D|-22-22-2--44-44-4--00-00-0--00-00-0--22-22-2--44-44-4--00000000-0x-------|
A|-------------------------------------------------------------------------|
E|-------------------------------------------------------------------------|

Outro
14.
G|------------------------------------------------------------------|
D|------------------------------------------------------------------|
A|-00-000-0----------------55-555-500-000-0----------------55-555-5-|
E|---------00-000-022-222-2----------------00-000-022-222-2---------|

15.
G|------------------------------------------------------------------|
D|-----------------------------------------22-222-244-444-4---------|
A|-00x---------------------55-555-500-000-0----------------5x-------|
E|---------00x-----22-222-2-----------------------------------------|

16.
G|-----------------|
D|-----------------|
A|-5-4-2-0~--------|
E|-----------------|


Please rate thanks!


Lyrics:

Take me to a place where only happiness is all around. 
1986 is where we'd go, sit out side with all my best friends, 
fighting over baseball cards. 
A tought of nothing to worry about.

Come around the block and check the club house (no one's home). 
I'll make sure you enjoy your stay anyway. 

So how are you? doing fine. 
Well, things have been worse by the year. 
Mom and dad broke up and we all grew up but, I stayed the same kid.

Jukebox full of memories, I lost when they were packed away. 
Lucky to have found them in my mind. 
What happend to the excitement we once had that disappeared? 
Something I am destined yet to find. 

Themes from old TV shows. 
Broken radio.
Every time I hear them, it takes me back home.



+++++++++++++++++++++++++++++++++
| RaiLeff                       |
+++++++++++++++++++++++++++++++++
"            
Submit corrections

comments powered by Disqus
↑ Back to top | Useless Id Bass for Jukebox. Lyrics for acoustic guitar and electric guitar. Tablatures and chords are parodies/interpretations of the original songs. You may use it for private study, scholarship, research or language learning purposes only