» » »

Useless Id, Jukebox Bass tabs (ver.1)

Artists:  A B C D E F G H I J K L M N O P Q R S T U V W X Y Z # 

Jukebox Bass tabs (ver.1)

Useless Id Tabs
Rating:
0/5 (0 votes)
Jukebox lessons Tabs too difficult? Try these video lessons and learn fast
                _________________________________________________

|--------|
|--------|
|--5-----|
|----5---| x1

|-------------------------------------------|
|----9---9---11----11---7----7----7----7----|
|--7--77---9----99----5---55---55---55------|
|-------------------------------------------| x2

|------------------|
|------------------|
|------------5>----|
|-0>----2>---------| x2

|---------|----------------------------------------|--------|
|---------|--------4-2----------------------4-2----|--------|
|--5-4-2--|----1-2-----22--44-2-1--22---1-2--------|-----7--|
|---------|--0------------------------0------------|-0>-----| 
(not sure but close)

|------------------|
|------------------|
|-------------5>---|
|-5>--0>--2>-------| x4

|------------------|
|------------------|
|------------5>----|
|-0>----2>---------| x4

|---------|--------------------------------------------|--------|
|---------|--------4-2----------------------------4-2--|--------|
|--5-4-2--|----1-2-----22-[drums]14/2--22-----1-2------|-----7--|
|---------|--0------------------------------0----------|-0>-----| x1 
(not sure but close)

|------------------|
|------------------|
|-------------5>---|
|-5>--0>--2>-------| x4

|-----------------------------------------------------|
|----9---9-9----11----11-11----7----6-7----7----6-7---|
|-77--77-----99----99-------55---55-----55---55-------|
|-----------------------------------------------------| x6

|------------------|
|------------------|
|-------------5>---|
|-5>--0>--2>-------| x4

|------------------|
|------------------|
|---5-4-2----------|
|---------5--------|

__________________________
kick ass song. enjoy!
            

comments powered by Disqus
↑ Back to top | Useless Id Bass for Jukebox. Lyrics for acoustic guitar and electric guitar. Tablatures and chords are parodies/interpretations of the original songs. You may use it for private study, scholarship, research or language learning purposes only