» » »

Useless Id, It's Alright Tabs (ver.1)

Artists:  A B C D E F G H I J K L M N O P Q R S T U V W X Y Z # 

It's Alright Tabs (ver.1)

Useless Id Tabs
Rating:
0/5 (0 votes)
It's Alright lessons Tabs too difficult? Try these video lessons and learn fast
                (Intro)
i'm not sure it's right..\=

1.
e|-----------------------------\----|
B|----------------------------------| \
G|------7-----------7----------  \--| X4
D|----7-----------------------------|  /
A|--0-----------0-0-----------------| /
E|----------------------------------|

2.
e|-----------------------------|
B|-----------------------------|
G|------7----------------------|
D|----7-------------7----------|
A|--6-----------0-0------------|
E|-----------------------------|

repet part on 1 eight times

e|------------------------------------------------------|
B|------------------------------------------------------|
G|--7-7--7-7-7-7-7--7-7--7-7-7-7-7--7-7--7-7-7-7-7--7-7-|
D|--7-7--7-7-7-7-7--7-7--7-7-7-7-7--7-7--7-7-7-7-7--7-7-|
A|--0-0--6-6-6-6-6--5-5--6-6-6-6-6--0-0--5-5-5-5-5--0-0-|
E|------------------------------------------------------|

enjoy! :P
            

comments powered by Disqus
↑ Back to top | Useless Id Tabs for It's Alright. Lyrics for acoustic guitar and electric guitar. Tablatures and chords are parodies/interpretations of the original songs. You may use it for private study, scholarship, research or language learning purposes only