» » »

Useless Id, Have A Nice Life Bass tabs (ver.1)

Artists:  A B C D E F G H I J K L M N O P Q R S T U V W X Y Z # 

Have A Nice Life Bass tabs (ver.1)

Useless Id Tabs
 Rating:
4/5 (4 votes)
Have A Nice Life lessons Tabs too difficult? Try these video lessons and learn fast
                ++++++++++++++++++++++++++++++++
| Useless ID- Have A Nice Life |
++++++++++++++++++++++++++++++++

Tuning: EbADG

Starts with both guitars
and bass enters at
00:18

Intro
"Back to nowhere..."
1.
G.|------------10-10----------------|
D.|------------------10-12-10-------|
A.|-1-11-1x-------------------12-10-|
Eb|---------------------------------|

Verse
"Although there are a thousand more..."
2.
G.|-------------------------------------------------------------------------|
D.|-------------------------------------------------------------------------|
A.|----------------------------11111111----------------------------55555555-|
Eb|-00000000-22222222-44444444----------00000000-22222222-44444444----------|

"I have no clue if this is your game..."
3.
G.|-------------------------------------------------------|
D.|-11111111-33333333-55555555----------------------------|
A.|----------------------------55555555-------------------|
Eb|-------------------------------------00000000-22222222-|

Chorus (1s, not 11s)
"Already prepared for a final thought..."
4.
G.|-------------------------------------------------------------|
D.|-------------------------------------------------------------|
A.|-11----------------------------11----------------------------|
Eb|----00-44-22-0-00000-2-2222222----00-44-22-0-00000-2-2222222-|

"In your net why did you have to let me fall?"
5.
G.|----------------------------------------------------------------|
D.|---------------------------------------------0x-1x----5x-3x-----|
A.|-11----------------------------3333333333333--------------------|
Eb|----00-44-22-0-00000-2-2222222----------------------------------|

Outro
6.
G.|------------------------------|
D.|------------------------------|
A.|-1-11x-1-1-11x--1-11x-1-1-11x-|
Eb|------------------------------|

Verse
"Phone calls, excitement in the air..."
7.
G.|-------------------------------------------------------------------------|
D.|-------------------------------------------------------------------------|
A.|----------------------------11111111----------------------------55555555-|
Eb|-00000000-22222222-44444444----------00000000-22222222-44444444----------|

"Is in a stream heading somewhere..."
8.
G.|-------------------------------------------------------|
D.|-11111111-33333333-55555555----------11111111-33333333-|
A.|----------------------------55555555-------------------|
Eb|-------------------------------------------------------|

Chorus (1s, not 11s)
"Already prepared for a final thought..."
9.
G.|-------------------------------------------------------------|
D.|-------------------------------------------------------------|
A.|-11----------------------------11----------------------------|
Eb|----00-44-22-0-00000-2-2222222----00-44-22-0-00000-2-2222222-|

"In your net why did you have to let me fall?"
10.
G.|----------------------------------------------------------------|
D.|---------------------------------------------0x-1x----5x-3x-----|
A.|-11----------------------------3333333333333--------------------|
Eb|----00-44-22-0-00000-2-2222222----------------------------------|

Outro
11.
G.|------------------------------|
D.|------------------------------|
A.|-1-11x-1-1-11x--1-11x-1-1-11x-|
Eb|------------------------------|

Bridge
12.
G.|-------------------------------------------------------------------------|
D.|-------------------------------------------------------------------------|
A.|----------------------------11111111----------------------------55555555-|
Eb|-00000000-22222222-44444444----------00000000-22222222-44444444----------|

13.
G.|---0h3~-0-----2h3~-2-----3h5~-3-----3p2-0---------------------|
D.|-1--------1-3--------3-5--------5-0-------0-11111111-33333333-|
A.|--------------------------------------------------------------|
Eb|--------------------------------------------------------------|

14.
G.|-------------------------10-10-------------------|
D.|-------------------------------10-12-10----------|
A.|-1-11x-1-1-11x--1-11x-1x----------------12-10-1x-|
Eb|-------------------------------------------------|

Lyrics:

Phone calls , excitement in the air.
Fluency has grown,
all we have shared is in a stream heading somewhere,
taking turns, back to nowhere.

Although there are a thousand more,
you are the one I have been looking for.
I have no clue if this is your game if so count me out and leave me in pain.

Already prepared for a final thought.
After only a few hours I got caught in your net,
why did you have to let me fall?
It left me in a crumbling room staring at the walls.

+++++++++++++++++++++++++++++++++
| RaiLeff                       |
+++++++++++++++++++++++++++++++++
            
Submit corrections

comments powered by Disqus
↑ Back to top | Useless Id Bass for Have A Nice Life. Lyrics for acoustic guitar and electric guitar. Tablatures and chords are parodies/interpretations of the original songs. You may use it for private study, scholarship, research or language learning purposes only