» » »

Useless Id, End Bass tabs (ver.1)

Artists:  A B C D E F G H I J K L M N O P Q R S T U V W X Y Z # 

End Bass tabs (ver.1)

Useless Id Tabs
 Rating:
4/5 (4 votes)
End lessons Tabs too difficult? Try these video lessons and learn fast
1
                +++++++++++++++++++
| Useless ID- End |
+++++++++++++++++++


"I'd love you forever..."


Tuning: Standard EADG


Verse
"Then you find each other..."
1.
G|------------------------------------------------------------------|
D|------------------------------------------------------------------|
A|-00-000-000-000-055-555-555-555-5---------------------------------|
E|---------------------------------33-333-322-222-200-000-000-000-0-|

"You promise to write..."
2.
G|----------------------------------|
D|----------------------------------|
A|-33-333-333-333-355-555-555-555-5-|
E|----------------------------------|

3.
G|------------------------------------------------------------------|
D|------------------------------------------------------------------|
A|---------------------------------00-000-000-000-055-555-555-555-5-|
E|-00-000-000-000-000-000-044-444-4---------------------------------|

"Im alright and missing you..."
4.
G|------------------------------------------------------------------|
D|------------------------------------------------------------------|
A|---------------------------------33-333-333-333-333-333-333-333-3-|
E|-33-333-322-222-200-000-000-000-0---------------------------------|

"With words from a note..."
5.
G|------------------------------------------------------------------|
D|------------------------------------------------------------------|
A|-------------------------------------------------77-777-777-777-7-|
E|-33-333-333-333-322-222-222-222-200-000-000-000-0-----------------|

"I'd love you forever..."
6.
G|------------------------------------------------------------------|
D|------------------------------------------------------------------|
A|-00-000-000-000-055-555-555-555-5---------------------------------|
E|---------------------------------33-333-322-222-20~----------------|

"I know that by then..."
7.
G|----------------------------------|
D|----------------------------------|
A|-33-333-333-333-355-555-566-666-6-|
E|----------------------------------|

Outro
8.
G|------------------------------------------------------------------|
D|------------------------------------------------------------------|
A|---------55-555-533-333-355-555-577-777-755-555-533-333-333-332-2-|
E|-00-000-0---------------------------------------------------------|

9.
G|------------------------------------------------------------------|
D|------------------------------------------------------------------|
A|-77-777-755-555-533-333-355-566-677-777-755-555-533-333-333-332-2-|--Play until song fades
E|------------------------------------------------------------------|


Please rate thanks!


Lyrics:

Nothing to hold on to when you're alone, then you find each other.
She heard you're leaving in august.
You promise to write, she's waiting at home.
An unanswered call.
I want you to know I'm alright and missing you.
Too bad I'm stuck here with words from a note 
that you sent long ago: "I'd love you forever"
But I'll be back in november.
I know that by then it will be the end.



+++++++++++++++++++++++++++++++++
| RaiLeff                       |
+++++++++++++++++++++++++++++++++
            
Submit corrections

comments powered by Disqus
↑ Back to top | Useless Id Bass for End. Lyrics for acoustic guitar and electric guitar. 1 Tablatures and chords are parodies/interpretations of the original songs. You may use it for private study, scholarship, research or language learning purposes only