» » »

Useless Id, Drinkage Bass tabs (ver.1)

Artists:  A B C D E F G H I J K L M N O P Q R S T U V W X Y Z # 

Drinkage Bass tabs (ver.1)

Useless Id Tabs
 Rating:
4/5 (4 votes)
Drinkage lessons Tabs too difficult? Try these video lessons and learn fast
1
                ++++++++++++++++++++++++
| Useless ID- Drinkage |
++++++++++++++++++++++++

During the first part of all the verses, 
the bass doesnt play on the song
but I wrote it down anyways in case you wanted to
Cheers!

Tuning: EADG

Intro
1.
G|----------------------|
D|-------------xxx-1-2~-|
A|-xxx-4-5~-------------|
E|----------------------|

Verse
"We get off the plane..."
2.
G|--------------------------------------------|
D|--------------------------------------------|
A|-0-00------2-22---------3-33-----------3-33-|
E|------2-22------0-00---------1-11-4-44------|

"Motoki dropped us..."
3.
G|--------------------------------------------------------------|
D|--------------------------------------------------------------|
A|-0-00------2-22---------3-33-----------3-xx-3-33-----------3x-|
E|------2-22------0-00---------1-11-4-44-----------1-11-4-44----|

Chorus
"We're all going out tonight..."
4.
G|--------------------------------------------------------------------------|
D|--------------------------------------------------------------------------|
A|----------33333333-00000000-------------------33333333-00000000-0000-0----|
E|-11111111-------------------33333333-11111111--------------------------3~-|

5.
G|--------------------------------------------------------------------------|
D|--------------------------------------------------------------------------|
A|----------33333333-00000000-----------------------------------------------|
E|-11111111-------------------33333333-11111111-11111111-11111111-1111-1-4~-|

Verse
"Sydney town at the bar with the gang..."
6.
G|--------------------------------------------|
D|--------------------------------------------|
A|-0-00------2-22---------3-33-----------3-33-|
E|------2-22------0-00---------1-11-4-44------|

7.
G|--------------------------------------------------------------|
D|--------------------------------------------------------------|
A|-0-00------2-22---------3-33-----------3-xx-3-33-----------3x-|
E|------2-22------0-00---------1-11-4-44-----------1-11-4-44----|

Chorus
"We're all going out tonight..."
8.
G|--------------------------------------------------------------------------|
D|--------------------------------------------------------------------------|
A|----------33333333-00000000-------------------33333333-00000000-0000-0----|
E|-11111111-------------------33333333-11111111--------------------------3~-|

9.
G|-------------------------------------------------------------------------|
D|-------------------------------------------------------------------------|
A|----------33333333-00000000----------------------------------------------|
E|-11111111-------------------33333333-11111111-11111111-11111111-11111111-|

Bridge
10.
G|---------------------------------------------------------------------|
D|---------------------------------33x-33x-33x-33x-6666-5555-3333-5555-|
A|-33x-33x-33x-33x-00x-00x-00x-00x-------------------------------------|
E|---------------------------------------------------------------------|

11.
G|---------------------------------------------------------------------|
D|---------------------------------33x-33x-33x-33x-6x---5x---3x---5x---|
A|-33x-33x-33x-33x-00x-00x-00x-00x-------------------------------------|
E|---------------------------------------------------------------------|

12.
G|------------------------------------------------------------------|
D|------------------------------------------------------------------|
A|-3-3-3-3-3-3-3-330-0-0-0-0-0-0-00---------------------------------|
E|---------------------------------1-1-1-1-1-1-1-111-1-1-1-1-1-1-11-|

13.
G|-------------------------------------------------------------|
D|-------------------------------------------------------------|
A|-3-3-3-3-3-3-3-33--------------------------------------------|
E|-----------------4-4-4-4-4-4-4-441-1-1-1-1-1-1-111-1-1-1-1-1-|

14.
G|---------------------------------------------------------------|
D|---------------------------------------------------------------|
A|-------0~------------0~------------0~------------0~--0~--------|
E|-1-4~------------4~------------4~------------4~----------------|

Chorus
"We're all going out tonight..."
15.
G|--------------------------------------------------------------------------|
D|--------------------------------------------------------------------------|
A|----------33333333-00000000-------------------33333333-00000000-0000-0----|
E|-11111111-------------------33333333-11111111--------------------------3~-|

16.
G|-------------------------------------------------------------------------|
D|-------------------------------------------------------------------------|
A|----------33333333-00000000----------------------------------------------|
E|-11111111-------------------33333333-11111111-11111111-11111111-22222222-|

"We're all going out...."
17.
G|-------------------------------------------------------------------------|
D|-------------------------------------------------------------------------|
A|----------55555555-22222222-00000000----------55555555-22222222-0x-------|
E|-33333333----------------------------33333333----------------------------|

18.
G|-------------------------------------------------------------------------|
D|-------------------------------------------------------------------------|
A|----------55555555-22222222-00000000-11111111-11111111/5~-------5x-------|
E|-33333333----------------------------------------------------------------|

Lyrics:

We got off the plane wasted again.
We drank all the wine on the way to Japan.
Motoki dropped us off at Tokyo hands.
No show for tonight but we got us a plan.

We're all going out tonight in case you want to know.
Raise your glass with me forget the heartache.
We're all going out tonight in case you want to know 
we'll meet you there.

Sydney town, at the bar with the gang.
Drinking whiskey whenever we can.
Passed out again and not feeling so well.
Gordy and Nigel trashed the hotel.
You know home is so far away.

+++++++++++++++++++++++++++++++++
| RaiLeff                       |
+++++++++++++++++++++++++++++++++
            
Submit corrections

comments powered by Disqus
↑ Back to top | Useless Id Bass for Drinkage. Lyrics for acoustic guitar and electric guitar. 1 Tablatures and chords are parodies/interpretations of the original songs. You may use it for private study, scholarship, research or language learning purposes only