>
 >
Day By Day

Day By Day Bass Tabs

Useless Id - Day By Day chords, tabs, tablatures, lyrics

Guitar lessons | Add/correct | Request | Top 50 tabs Artists:  A B C D E F G H I J K L M N O P Q R S T U V W X Y Z 0-9

Day By Day Bass Tabs – Useless Id

CD, Sheet music, Poster

Do you like Day By Day? Share with your friends now
Bass TabsTabs
++++++++++++++++++++++++++
| Useless ID- Day By Day |
++++++++++++++++++++++++++


"Another rainy day..."

Tuning: Standard EADG



Intro
1.
G|--------------------------------------|
D|--------------------------------------|
A|-----------------------------------8\-|
E|--------------------------------------|

Verse
"Another endless day..."
2.
G|------------------------------------------------------------------|
D|------------------------------------------------------------------|
A|-44-444-433-333-311-111-100-000-0--------44-444-4-----------------|--x4
E|---------------------------------22-222-2--------22-222-244-444-4-|

Chorus
"Cant be wrong, cant belong..."
3.
G|-----------------------------------------------------------------|
D|-----------------------------------------------------------------|
A|-------------------------11-1-----------------------------1x-----|
E|-22-222-244-444-411-111-1----44-422-222-244-444-411-111-1-----4x-|

"Who's to blame..."
4.
G|-------------------------------------------------------|
D|-------------------------------------------------------|
A|-------------------------111---------------------------|
E|-22-222-244-444-4111-111-----444-222-222-44444x--------|

Verse
"Another rainy day..."
5.
G|---------------------------------------------------------------------------------|
D|-------------------------------------------------------------44444x--------------|
A|-44444x----33333x----11111x----00000x--------------44444x------------------------|
E|-----------------------------------------22222x------------------------44444x----|

"When I woke up today..."
6.
G|---------------------------------------------------------------------------------|
D|---------------------------------------------------------------------------------|
A|-44444x----33333x----11111x----00000x--------------44444x------------------------|
E|-----------------------------------------22222x--------------22222x----44444x----|

Outro
7.
G|------------------------------------------------------------------|
D|------------------------------------------------------------------|
A|-44-444-433-333-311-111-100-000-0--------44-444-4-----------------|--x2
E|---------------------------------22-222-2--------22-222-244-444-4-|


Please rate!


Lyrics:

Another endless day, I could't find a way
to spend some time on writing songs with stupid meanings
I can't find a way to make some sense
My mind is such a mess, my girlfriend says I really suck
And that my thoughts I can't express

Another sunny day, still I can't find a way
how to describe just what I feel
Maybe my brain is holding still
If there's a better way for me to sing and play
It must be silence, I'm so poor
but there's one thing I know for sure

Can't be wrong
Can't belong to what I thought that I once were
Can't be right
Ccannot fight for something that's not worth it
Who's to blame
What a shame I don't really care at all

Another rainy day, I can't find a better way
to give a meaning to it all
I guess my luck is very small
When I woke up today, drunk from yesterday
I know tomorrow will be the same
It's only me I have to blame



+++++++++++++++++++++++++++++++++
| RaiLeff                       |
+++++++++++++++++++++++++++++++++





Comments


Popular Useless Id tabs & chords
Another Bad Taste Bass Tabs
At Least I Tried Bass Tabs
Perfect Life Bass Tabs
Unhappy Hour Bass Tabs
Isolate Me Chords
A Year To Forget Tabs
My Therapy 1 Tabs
Diary Ukulele
End Ukulele
Opportunities Ukulele


Song lyrics



↑ Back to top | Tablatures and chords are parodies/interpretations of the original songs. You may use it for private study, scholarship, research or language learning purposes only
© 2014 AZChords.com Contact us | Privacy policy | DMCA | Add/correct tabs | Request tabs | Top 50 tabs