>
 >
Confused

Confused Bass Tabs

Useless Id - Confused chords, tabs, tablatures, lyrics

Guitar lessons | Add/correct | Request | Top 50 tabs Artists:  A B C D E F G H I J K L M N O P Q R S T U V W X Y Z 0-9

Confused Bass Tabs – Useless Id

CD, Sheet music, Poster

Do you like Confused? Share with your friends now
Bass Tabs
++++++++++++++++++++++++
| Useless ID- Confused |
++++++++++++++++++++++++


"I guess I was wrong again, cant seem to find an answer..."

Tuning: Half A Step Down (EbADG )


Verse
"On wich side am I?"
1.
G||---------------------------------------------------------|
D||---------------------------------------------------------|
A||---------------------4-44444---------------------4-44444-|
Eb|-55-5557-77777-22-222--------55-5557-77777-22-222--------|

"I've found myself..."
2.
G||---------------------------------------------------------|
D||---------------------------------------------------------|
A||---------------------4-44444---------------------4-44444-|
Eb|-55-5557-77777-22-222--------55-5557-77777-22-222--------|

Chorus
"And Im so confused..."
3.
G||----------------------------------------------|
D||----------------------------------------------|
A||-------------444x---------------------4-4-4-4-|
Eb|-000x----222---------555-000x----222----------|

"I guess I was wrong again..."
4.
G||----------------------------------------------|
D||----------------------------------------------|
A||-------------444x---------------------4-4x----|
Eb|-000x----222---------555-000x----222----------|

Verse
"The TV is shut..."
5.
G||---------------------------------------------------------|
D||---------------------------------------------------------|
A||---------------------4-44444---------------------4-44444-|
Eb|-55-5557-77777-22-222--------55-5557-77777-22-222--------|

"My walls are white..."
6.
G||---------------------------------------------------------|
D||-66-6668-88888-33-333----------------------------4-44444-|
A||---------------------4-44444-55-5557-77777-22-222--------|
Eb|---------------------------------------------------------|

Chorus
"And Im so confused..."
7.
G||----------------------------------------------|
D||----------------------------------------------|
A||-------------444x---------------------4-4-4-4-|
Eb|-000x----222---------555-000x----222----------|

"I guess I was wrong again..."
8.
G||----------------------------------------------|
D||----------------------------------------------|
A||-------------444x---------------------4-4-4-4-|
Eb|-000x----222---------555-000x----222----------|

Outro
9.
G||---------------------------------------------------------------------------|
D||-----------------------------------------------------------------1111------|
A||--------------------------------------33333333----------11111111------1111-|
Eb|-----------------------------------------------22222222--------------------|

Bridge
"Sometimes it feels so weird..."
10.
G||---------------------------------------------------------------------------|
D||----------------------------1111---------------------------------1111------|
A||-33333333----------11111111------1111-33333333----------11111111------1111-|
Eb|----------22222222-----------------------------22222222--------------------|

"Can I manage on my own??"
11.
G||-55555320------------------------------------------------------------------|
D||----------------------------1111------------01-3333310-----------1111------|
A||-----------------0-11111111------1111-333333----------3-11111111------1111-|
Eb|----------2222224----------------------------------------------------------|

Outro
12.
G||-------------------|
D||-------------------|
A||-3~----------------|
Eb|-------------------|


Lyrics:


On which side am I?
This one or this one
I'm so messed up
And I can't fuckin' understand what's going on
I've found myself
Caught in a position once again
That I'm not sure
If that's the way
That I wanted it to be

And I'm so confused
I was sure we're going
In a special direction
I guess I was wrong again
Can't seem to find an answer or salvation

The TV is shut
Yeah, I'm alone again
Thinking of where I was
Where I've been
My walls are white
But I see only black
It can't be you 'cause I don't think
That your shadow is that big

Sometimes it feels so weird
And I don't know what to decide
This side or this side
My mind is so messed up
Can I manage on my own?
Or do I need you by my side
To help me clear my doubts
And to find my way out



+++++++++++++++++++++++++++++++++
| RaiLeff                       |
+++++++++++++++++++++++++++++++++





Comments


Popular Useless Id tabs & chords
Just Friends Bass Tabs
Same Story, Someone New Bass Tabs
Before I Go Chords
Everything Turned Red Chords
New Misery Chords
Somewhere Chords
No Time For Me To Be A Teenager Tabs
Not To Wait Tabs
Note Tabs
Turn Up The Stereo Tabs


Song lyrics



↑ Back to top | Tablatures and chords are parodies/interpretations of the original songs. You may use it for private study, scholarship, research or language learning purposes only
© 2014 AZChords.com Contact us | Privacy policy | DMCA | Add/correct tabs | Request tabs | Top 50 tabs