>
 >
Blood Pressure

Blood Pressure Guitar Tabs

Useless Id - Blood Pressure chords, tabs, tablatures, lyrics

Guitar lessons | Add/correct | Request | Top 50 tabs Artists:  A B C D E F G H I J K L M N O P Q R S T U V W X Y Z 0-9

Blood Pressure Guitar Tabs – Useless Id

CD, Sheet music, Poster

Do you like Blood Pressure? Share with your friends now
ChordsChords v2TabsUkulele
By Lotan Yaish The Teimani.

E||-------|-------|-------|-------|
B||-------|-------|-------|-------|
G||-------|-------|-------|-------|
D||-------|-------|-------|-------|
A||-------|-------|-------|-------|
E||-------|-------|-------|-------|


  E  S E  S E  S S E  Q
---------------------------|
---------------------------|
-------7--7-7--4-4-4-------|
--5----7--7-7--4-4-4-------|
--5--5-5--5-5--2-2-2-------|
--3--3---------------------|


  S S Q.     S S Q.
------------------------|
------------------------|
------------------------|
--7-7-------------------|
--5-5--------5-5--------|
-------------3-3--------|


  S S Q.     S S E  S S E
---------------------------|
---------------------------|
---------------------------|
--7-7----------------------|
--5-5--------5-5----5-5----|
-------------3-3----3-3----|


      PM PM PM PM PM PM     PM PM PM PM PM PM
  S S S  S  S  S  S  S  S S S  S  S  S  S  S
---------------------------------------------|
---------------------------------------------|
--7-7----------------------------------------|
--7-7-7--7--7--7--7--7--5-5------------------|
--5-5-5--5--5--5--5--5--5-5-5--5--5--5--5--5-|
------------------------3-3-3--3--3--3--3--3-|


  E  S E  S E  S S E  E.  S
----------------------------|
----------------------------|
-------7--7-7--4-4-4--L-----|
--5----7--7-7--4-4-4--L---5-|
--5--5-5--5-5--2-2-2--L---5-|
--3--3--------------------3-|


  E  E  S S S E.  E  S S S S
-----------------------------|
-----------------------------|
---------------------------4-|
--L--5--5-5-5-7---7--7-7-7-4-|
--L--5--5-5-5-7---7--7-7-7-2-|
--L--3--3-3-3-5---5--5-5-5---|


  E  E  S S E  S S E  S S S S
------------------------------|
------------------------------|
--L--4------4------4------4---|
--L--4--4-4-4--4-4-4--4-4-4-5-|
--L--2--2-2-2--2-2-2--2-2-2-5-|
----------------------------3-|


  E  E  S S S E.  E  S S S S
-----------------------------|
-----------------------------|
---------------------------4-|
--L--5--5-5-5-7---7--7-7-7-4-|
--L--5--5-5-5-7---7--7-7-7-2-|
--L--3--3-3-3-5---5--5-5-5---|


  E  E  S S E  S S E  S S S S
------------------------------|
------------------------------|
--L--4------4------4------4---|
--L--4--4-4-4--4-4-4--4-4-4-5-|
--L--2--2-2-2--2-2-2--2-2-2-5-|
----------------------------3-|


  E  E  S S S E.  E  S S S S
-----------------------------|
-----------------------------|
---------------------------4-|
--L--5--5-5-5-7---7--7-7-7-4-|
--L--5--5-5-5-7---7--7-7-7-2-|
--L--3--3-3-3-5---5--5-5-5---|


  E  E  S S E  S S E  S S S S
------------------------------|
------------------------------|
--L--4------4------4------4---|
--L--4--4-4-4--4-4-4--4-4-4-5-|
--L--2--2-2-2--2-2-2--2-2-2-5-|
----------------------------3-|


  E  E  S S S E.  E  S S E
----------------------------|
----------------------------|
----------------------------|
--L--5--5-5-5-7---7--7-7-7--|
--L--5--5-5-5-7---7--7-7-7--|
--L--3--3-3-3-5---5--5-5-5--|


  S S Q.     S S Q.
------------------------|
------------------------|
------------------------|
--7-7-------------------|
--5-5--------5-5--------|
-------------3-3--------|


      PM PM PM PM PM PM     PM PM PM PM PM PM
  S S S  S  S  S  S  S  S S S  S  S  S  S  S
---------------------------------------------|
---------------------------------------------|
--7-7----------------------------------------|
--7-7-7--7--7--7--7--7--5-5------------------|
--5-5-5--5--5--5--5--5--5-5-5--5--5--5--5--5-|
------------------------3-3-3--3--3--3--3--3-|


      PM PM PM PM PM PM     PM PM PM PM PM PM
  S S S  S  S  S  S  S  S S S  S  S  S  S  S
---------------------------------------------|
---------------------------------------------|
--7-7----------------------------------------|
--7-7-7--7--7--7--7--7--5-5------------------|
--5-5-5--5--5--5--5--5--5-5-5--5--5--5--5--5-|
------------------------3-3-3--3--3--3--3--3-|


      PM PM PM PM PM PM     PM PM PM PM PM PM
  S S S  S  S  S  S  S  S S S  S  S  S  S  S
---------------------------------------------|
---------------------------------------------|
--7-7----------------------------------------|
--7-7-7--7--7--7--7--7--5-5------------------|
--5-5-5--5--5--5--5--5--5-5-5--5--5--5--5--5-|
------------------------3-3-3--3--3--3--3--3-|


  E  S E  S E  S S E  Q
---------------------------|
---------------------------|
-------7--7-7--4-4-4--L----|
--5----7--7-7--4-4-4--L----|
--5--5-5--5-5--2-2-2--L----|
--3--3---------------------|


            PM PM PM PM PM PM PM PM PM PM
  E  S S E  S  S  S  S  S  S  S  S  S  S
------------------------------------------|
------------------------------------------|
--4----6-7--------------------------------|
--4--4-6-7--------------------------------|
--2--0-4-5--5--5--5--5--5--5--5--5--5--5--|
------------3--3--3--3--3--3--3--3--3--3--|


            PM PM PM PM PM PM PM PM PM PM
  E  S S E  S  S  S  S  S  S  S  S  S  S
------------------------------------------|
------------------------------------------|
--4----6-7--------------------------------|
--4--4-6-7--------------------------------|
--2--0-4-5--5--5--5--5--5--5--5--5--5--5--|
------------3--3--3--3--3--3--3--3--3--3--|


      PM PM PM PM PM PM     PM PM PM PM PM PM
  S S S  S  S  S  S  S  S S S  S  S  S  S  S
---------------------------------------------|
---------------------------------------------|
--7-7----------------------------------------|
--7-7-7--7--7--7--7--7--5-5------------------|
--5-5-5--5--5--5--5--5--5-5-5--5--5--5--5--5-|
------------------------3-3-3--3--3--3--3--3-|


  E  S E  S E  S S E  E.  S
----------------------------|
----------------------------|
-------7--7-7--4-4-4--L-----|
--5----7--7-7--4-4-4--L---5-|
--5--5-5--5-5--2-2-2--L---5-|
--3--3--------------------3-|


  E  E  S S S E.  E  S S S S
-----------------------------|
-----------------------------|
---------------------------4-|
--L--5--5-5-5-7---7--7-7-7-4-|
--L--5--5-5-5-7---7--7-7-7-2-|
--L--3--3-3-3-5---5--5-5-5---|


  E  E  S S E  S S E  S S S S
------------------------------|
------------------------------|
--L--4------4------4------4---|
--L--4--4-4-4--4-4-4--4-4-4-5-|
--L--2--2-2-2--2-2-2--2-2-2-5-|
----------------------------3-|


  E  E  S S S E.  E  S S S S
-----------------------------|
-----------------------------|
---------------------------4-|
--L--5--5-5-5-7---7--7-7-7-4-|
--L--5--5-5-5-7---7--7-7-7-2-|
--L--3--3-3-3-5---5--5-5-5---|


  E  E  S S E  S S E  S S S S
------------------------------|
------------------------------|
--L--4------4------4------4---|
--L--4--4-4-4--4-4-4--4-4-4-5-|
--L--2--2-2-2--2-2-2--2-2-2-5-|
----------------------------3-|


  E  E  S S S E.  E  S S S S
-----------------------------|
-----------------------------|
---------------------------4-|
--L--5--5-5-5-7---7--7-7-7-4-|
--L--5--5-5-5-7---7--7-7-7-2-|
--L--3--3-3-3-5---5--5-5-5---|


  E  E  S S E  S S E  S S S S
------------------------------|
------------------------------|
--L--4------4------4------4---|
--L--4--4-4-4--4-4-4--4-4-4-5-|
--L--2--2-2-2--2-2-2--2-2-2-5-|
----------------------------3-|


  E  E  S S S E.  E  S S E
----------------------------|
----------------------------|
----------------------------|
--L--5--5-5-5-7---7--7-7-7--|
--L--5--5-5-5-7---7--7-7-7--|
--L--3--3-3-3-5---5--5-5-5--|


  E.  E.  E.  E.  E  E
------------------------|-------|-------|
------------------------|-------|-------|
--4---4---4---4---4--4--|-------|-------|
--4---4---4---4---4--4--|-------|-------|
--2---2---2---2---2--2--|-------|-------|
------------------------|-------|-------|


   H        Q.      E
--19--------L-------L--|
---L--------L------19--|
-----------------------|
-----------------------|
-----------------------|
-----------------------|


   H         Q.      E
-------------L-------L--|
---L--------19------19--|
--19---------L-------L--|
------------------------|
------------------------|
------------------------|


   H        Q.      E
--19--------L-------L--|
---L--------L------19--|
-----------------------|
-----------------------|
-----------------------|
-----------------------|


   H        Q.      E
--19--------L-------L--|
---L--------L------19--|
-----------------------|
-----------------------|
-----------------------|
-----------------------|


   H         E.   E   E
-------------L----L------|
--19--------19---19--19--|
-------------L----L------|
-------------------------|
-------------------------|
-------------------------|


   H        Q.      E
--19--------L-------L--|
---L--------L------19--|
-----------------------|
-----------------------|
-----------------------|
-----------------------|


   H        Q.      E
--19--------L-------L--|
---L--------L------19--|
-----------------------|
-----------------------|
-----------------------|
-----------------------|


   H        Q.      E
--19--------L-------L--|
---L--------L------19--|
-----------------------|
-----------------------|
-----------------------|
-----------------------|


   H        Q.      E
--19--------L-------L--|
---L--------L------19--|
-----------------------|
-----------------------|
-----------------------|
-----------------------|


  E.  E.  E.  E.  E  E
------------------------|
------------------------|
--4---4---4---4---4-----|
--4---4---4---4---4-----|
--2---2---2---2---2-----|
------------------------|


  E.  E.  E.  E.  Q
-----------------------|
-----------------------|
--4---4---4---4---4----|
--4---4---4---4---4----|
--2---2---2---2---2----|
-----------------------|


  E  E  S S S E.  E  S S S S
-----------------------------|
-----------------------------|
---------------------------4-|
--5--5--5-5-5-7---7--7-7-7-4-|
--5--5--5-5-5-7---7--7-7-7-2-|
--3--3--3-3-3-5---5--5-5-5---|


  E  E  S S E  S S E  S S S S
------------------------------|
------------------------------|
--L--4------4------4------4---|
--L--4--4-4-4--4-4-4--4-4-4-5-|
--L--2--2-2-2--2-2-2--2-2-2-5-|
----------------------------3-|


  E  E  S S S E.  E  S S S S
-----------------------------|
-----------------------------|
---------------------------4-|
--L--5--5-5-5-7---7--7-7-7-4-|
--L--5--5-5-5-7---7--7-7-7-2-|
--L--3--3-3-3-5---5--5-5-5---|


  E  E  S S E  S S E  S S S S
------------------------------|
------------------------------|
--L--4------4------4--4-2-----|
--L--4--4-4-4--4-4-4--4-2---5-|
--L--2--2-2-2--2-2-2--2-0---5-|
----------------------------3-|


  E  E  S S S E.  E  S S S S
-----------------------------|
-----------------------------|
---------------------------4-|
--L--5--5-5-5-7---7--7-7-7-4-|
--L--5--5-5-5-7---7--7-7-7-2-|
--L--3--3-3-3-5---5--5-5-5---|


  E  E  S S E  S S E  S S S S
------------------------------|
------------------------------|
--L--4------4------4------4---|
--L--4--4-4-4--4-4-4--4-4-4-5-|
--L--2--2-2-2--2-2-2--2-2-2-5-|
----------------------------3-|


  E  E  S S S E.  E  S S S S
-----------------------------|
-----------------------------|
---------------------------4-|
--L--5--5-5-5-7---7--7-7-7-4-|
--L--5--5-5-5-7---7--7-7-7-2-|
--L--3--3-3-3-5---5--5-5-5---|


  E  E  S S E  S S E  S S S S
------------------------------|
------------------------------|
--L--4------4------4------4---|
--L--4--4-4-4--4-4-4--4-4-4-5-|
--L--2--2-2-2--2-2-2--2-2-2-5-|
----------------------------3-|


  E  E  S S S E.  E  S S S S
-----------------------------|
-----------------------------|
---------------------------4-|
--L--5--5-5-5-7---7--7-7-7-4-|
--L--5--5-5-5-7---7--7-7-7-2-|
--L--3--3-3-3-5---5--5-5-5---|


  E  E  S S E  S S E  S S S S
------------------------------|
------------------------------|
--L--4------4------4------4---|
--L--4--4-4-4--4-4-4--4-4-4-5-|
--L--2--2-2-2--2-2-2--2-2-2-5-|
----------------------------3-|


  E  E  S S S E.  E  S S S S
-----------------------------|
-----------------------------|
---------------------------4-|
--L--5--5-5-5-7---7--7-7-7-4-|
--L--5--5-5-5-7---7--7-7-7-2-|
--L--3--3-3-3-5---5--5-5-5---|


  E.  E.  E.  E.  E  E
------------------------|-----||
------------------------|-----||
--4---4---4---4---4-----|-----||
--4---4---4---4---4-----|-----||
--2---2---2---2---2-----|-----||
------------------------|-----||


Duration Legend
---------------
W - whole
H - half
Q - quarter
E - 8th
S - 16th
T - 32nd
X - 64th
. - note dotted
|-n-|  - n-tuplets


Tablature Legend
----------------
L - tied note
x - dead note
g - grace note
(n) - ghost note
> - accentuded note
NH - natural harmonic
AH - artificial harmonic
TH - tapped harmonic
SH - semi harmonic
PH - pitch harmonic
h - hammer on
p - pull off
b - bend
br - bendRelease
pb - preBend
pbr - preBendRelease
brb - bendReleaseBend
\n/ - tremolo bar dip
\n - tremolo bar dive
-/n - tremolo bar Release up
/n\ - tremolo bar inverted dip
/n - tremolo bar return
-\n - tremolo bar Release down
S - shift slide
s - legato slide
/ -  slide into from below or out of upwards
\ -  slide into from above or out of downwards
~ - vibrato
W - wide vibrato
tr - trill
TP - tremolo picking
T - tapping
S - slap
P - pop
< - fade in
^ - brush up
v - brush down





Comments


Popular Useless Id tabs & chords
Confused Bass Tabs
Turn Up The Stereo Bass Tabs
Give It Up Chords
It's Alright Chords
No Time For Me To Be A Teenager Chords
Obsessive Compulsive Disorder Chords
Suffer For The Fame Chords
My Therapy Tabs
No Time For Me To Be A Teenager Tabs
Oh, My Guard 1 Tabs


Song lyrics



↑ Back to top | Tablatures and chords are parodies/interpretations of the original songs. You may use it for private study, scholarship, research or language learning purposes only
© 2014 AZChords.com Contact us | Privacy policy | DMCA | Add/correct tabs | Request tabs | Top 50 tabs