» » »

Useless Id, Birthday Song Bass tabs (ver.1)

Artists:  A B C D E F G H I J K L M N O P Q R S T U V W X Y Z # 

Birthday Song Bass tabs (ver.1)

Useless Id Tabs
 Rating:
4/5 (4 votes)
Birthday Song lessons Tabs too difficult? Try these video lessons and learn fast
1
                +++++++++++++++++++++++++++++
| Useless ID- Birthday Song |
+++++++++++++++++++++++++++++

I love this song!
And I cant freakin stop
thinking about you!

Tuning: EADG

Verse
"It was a sunday..."
1.
G|-------------------------------------------------------------------------|
D|----------------------------00000000----------------------------00001111-|
A|----------22222222-33333333-------------------22222222-33333333----------|
E|-33333333----------------------------33333333----------------------------|

Pre-Chorus
"Now she needs an answer..."
2.
G|---------------------------------------|
D|----------------------------0-000-0000-|
A|---------2-222-2222-3-3-33-------------|--x2
E|-0-0-00--------------------------------|

Verse
"Im sitting and waiting..."
3.
G|---------------------------------------------------------------------|
D|-------------------------000x-------------------------------00001111-|
A|---------222x----333x---------------------22222222-33333333----------|
E|-333x----------------------------33333333----------------------------|

Pre-Chorus
"Now she needs an answer..."
4.
G|---------------------------------------|
D|----------------------------0-000-0000-|
A|---------2-222-2222-3-3-33-------------|
E|-0-0-00--------------------------------|

"I forgot her birthday..."
5.
G|---------------------------------------|
D|----------------------------0-000-xxxx-|
A|---------2-222-2222-3-3-33-------------|
E|-0-0-00--------------------------------|

Chorus
"After all...We can be friends..."
6.
G|----------------------------------------------------------------------------|
D|----------------------------------------------------------------------------|
A|-3-3-33--5-555-5555---------------------3-3-33--5-555-5555------------------|
E|--------------------3333-2222-00000000---------------------3333333-00000000-|

"After all...We can be friends..."
7.
G|----------------------------------------------------------|
D|----------------------------------------------------------|
A|-3-3-33--5-555-5555---------------------3-3-33--5~--------|
E|--------------------3x---2x---00000000--------------------|

8.
G|--------------------|
D|--------------------|
A|-55555555-5~--------|
E|--------------------|

"Cus it was her birthday..."
9.
G|-----------------------------------------------------------------------------|
D|----------------------------0-000-0000----------------------------0-000-0000-|
A|---------2-222-2222-3-3-33---------------------2-222-2222-3-3-33-------------|
E|-3-3-33--------------------------------3-3-33--------------------------------|

10.
G|-------------------------------------------------------------------------|
D|----------------------------00000000----------------------------00000000-|
A|----------22222222-33333333-------------------22222222-33333333----------|
E|-33333333----------------------------33333333----------------------------|

"It was her birthday..."
11.
G|----------------------|
D|----------------------|
A|----------------------|
E|-0~------0/12~--------|

Lyrics:

It was a sunday,
I never tought I could forget.
If I would remember'
I wouldn't be full of regret.

Now she needs an answer.
I forgot her Birthday.

Sitting and waiting,
I want her to know that I care.
No matter what I say,
I never make it up to her.

After all we can be friends
Still pretend all the time.

'cause it was her birthday.

+++++++++++++++++++++++++++++++++
| RaiLeff                       |
+++++++++++++++++++++++++++++++++
            
Submit corrections

comments powered by Disqus
↑ Back to top | Useless Id Bass for Birthday Song. Lyrics for acoustic guitar and electric guitar. 1 Tablatures and chords are parodies/interpretations of the original songs. You may use it for private study, scholarship, research or language learning purposes only