» » »

Useless Id, A Year To Forget Tabs (ver.1)

Artists:  A B C D E F G H I J K L M N O P Q R S T U V W X Y Z # 

A Year To Forget Tabs (ver.1)

Useless Id Tabs
 Rating:
4/5 (4 votes)
A Year To Forget lessons Tabs too difficult? Try these video lessons and learn fast
                -------------------------------------------------------------------------------
--------------------------------------------------------------------------------


 Opening Guitar riff:
 not necessarily accurate, but it sounds decent.
e|-------------------7---8--10---|
B|---8---4---5---5---5---5---7---|
G|---0---4---5---2---------------|
D|-------------------------------|
A|-------------------------------|
E|-------------------------------|

  Verse:
     G   B   C   A   Em  C   D
e|----------------------------------|
B|----------------------------------|
G|-------4---5-----------5---7------|
D|---5---4---5---7---2---5---7------|
A|---5---2---3---7---2---3---5------|
E|---3-----------5---0--------------|

  Chorus:
    Em   C   D
e|------------------- |
B|--------------------|
G|-------5---7--------|
D|---2---5---7--------|
A|---2---3---5--------|
E|---0----------------|

  Bridge:
     A   B   C
e|-------------------|
B|-------------------|
G|-------------------|
D|---7---9---10------|
A|---7---9---10------|
E|---5---7---8-------|

  Acoustic End:
     G   B7  C   Am  Em  C   D
e|---3---2---0---0---0---0---2-----|
B|---0---0---1---1---0---1---3-----|
G|---0---2---0---2---0---0---2-----|
D|---0---1---2---2---2---2---0-----|
A|---2---2---3---0---2---3---0-----|
E|---3---x---0---x---0---0---x-----|

end on G.

Feel free to make corrections.
===============================================================================
            
Submit corrections

comments powered by Disqus
↑ Back to top | Useless Id Tabs for A Year To Forget. Lyrics for acoustic guitar and electric guitar. Tablatures and chords are parodies/interpretations of the original songs. You may use it for private study, scholarship, research or language learning purposes only