» » »

Bird And The Worm Bass tabs (ver.2)

Artists:  A B C D E F G H I J K L M N O P Q R S T U V W X Y Z # 

Bird And The Worm Bass tabs (ver.2)

Used
Rating:
2/5 (3 votes)

Tabs too difficult? Try these video lessons and learn fast.
                This is the tab for The Bird and the worm by the used. It is a really simple version of 
song because it variates a lot throughout but i give you
the bass chords so you can variate it to how you feel comfortable. I've done it in 
Used tunning DADG but at the bottom will be standard tunning
EADG so if you dont wanna de tune scroll down :). Enjoy and please rate fairly.

Tunning DADG - (STANDARD EADG AT BOTTOM)

Intro
G|----------------------------||
D|-4/-------------------------||
A|-------4~----------4~-------||
D|----6~----5~-4~-6~----5~-4~-||

Chorus
G|-----------------------------------------------------||
D|-----------------------------------------------------||
A|-------------------------000000000000----------------||
D|-444444444444222222222222------------333333444444----||

G|------------------------------------------------||
D|------------------------------------------------||
A|---------------------0000000000000--------------||
D|-44444444222222222222-------------0333-0333-04~-||

Bridge
G|-------------------------------------------||
D|-------------------------------------------||
A|-------------------------------------------||
D|-4~-4(stop this note dead)-6h7p6h7p6h7p6h7-||

Verse 1
G|-------------------||
D|-------------------||
A|-------------------||
D|-44444444/12121212-||

G|---------------------------||
D|---------------------------||
A|---------------------------||
D|-4444444/12121212---11~/6~-||

G|---------------|| x2
D|---------------|| x2
A|---------------|| x2
D|-4444444444444-|| x2

G|-------------||
D|-------------||
A|-------------||
D|-3~-4444~-3~-||

Chorus
G|-----------------------------------------------------||
D|-----------------------------------------------------||
A|----------2-555555555555-2-0000000000002-------------||
D|-44444444-------------------------------333333444444-||

G|-------------------------------------------------------------||
D|-------------------------------------------------------------||
A|----------2-555555555555-2-0000000000000---------------------||
D|-44444444-------------------------------0333-0333-0333-0333-||

Bridge
G|----------------------------------------------|| x3
D|----------------------------------------------|| x3
A|----------------------------------------------|| x3
D|-4~-4(stop this note dead)-6h7p6h7p6h7p6h7----|| x3

G|-----------------||
D|-----------------||
A|-----------------||
D|-p6h7p6h76h7p6h7-||

PAUSE UNTIL 2:17
G|-------------------------------------------||
D|-------------------------------------------||
A|-------------------------------------------||
D|-4~-4(stop this note dead)-6h7p6h7p6h7p6h7-||   

G|--------------------------------------------||
D|--------------------------------------------||
A|--------------------------------------------||
D|-4(stop this note dead)-6h7p6h7p6h7p6h7p6p4-||  

G|-------------------------------------------||
D|-------------------------------------------||
A|-------------------------------------------||
D|-3~-3(stop this note dead)-5h6p5h6p5h6p5h6-||

Chorus
G|-----------------------------------------------------||
D|-----------------------------------------------------||
A|----------2-555555555555-2-0000000000002-------------||
D|-44444444-------------------------------333333444444-||

G|---------------------------------------------------||
D|---------------------------------------------------||
A|----------555555555555-0000000000000---------------||
D|-44444444----------------------------3-3-3-3-3-3-3-||

G|---------------------------222222220------------------||
D|------------------------------------20----------------||
A|----------2-555555555555-2------------20--------------||
D|-44444444-------------------------------3-3-3-3-4-4-4-||

G|---------------------------------------------------------------||
D|---------------------------------------------------------------||
A|----------2-555555555555-2-0000000000000-----------------------||
D|-44444444-------------------------------0333-0333-0333-0333333-||


Bridge
G|----------------------------------------------|| x2
D|----------------------------------------------|| x2
A|----------------------------------------------|| x2
D|-4~-4(stop this note dead)-6h7p6h7p6h7p6h7----|| x2

Outro
G|-----------------------------||
D|-----------------------------||
A|-----------------------------||
D|-4-4-4-4-4-4-6h7p6h7p6h7p6h7-||

G|-----------------|| x3
D|-----------------|| x3
A|-----------------|| x3
D|-p6h7p6h76h7p6h7-|| x3

G|-----||
D|-----||
A|-----||
D|-4-4-||
            
Tabs too difficult? Try these video lessons and learn fast.


comments powered by Disqus
↑ Back to top | Tablatures and chords are parodies/interpretations of the original songs. You may use it for private study, scholarship, research or language learning purposes only