» » »

Listening Tabs (ver.1)

Artists:  A B C D E F G H I J K L M N O P Q R S T U V W X Y Z # 

Listening Tabs (ver.1)

Used
Rating:
0/5 (0 votes)

Tabs too difficult? Try these video lessons and learn fast.
                Tuning: Drop D Tuning (D A D G B e)

Intro Part 1: Plays through once, then goes to Intro Part 2

e|-000-000-000-000-00000-0-00000-0-00000-----------------------------------|
B|-888-666-555-666-55555-3-55555-3-55555-----------------------------------|
G|-------------------------------------------------------------------------|
D|-------------------------------------------------------------------------|
A|-------------------------------------------------------------------------|
D|-------------------------------------------------------------------------|

Intro Part 2: Plays through four times

e|-000-000-000-000-0000----------------------------------------------------|
B|-888-666-555-666-5555----------------------------------------------------|
G|-------------------------------------------------------------------------|
D|-------------------------------------------------------------------------|
A|-------------------------------------------------------------------------|
D|-------------------------------------------------------------------------|

Intro Part 2 is also the second half of the first verse (you again play it four times), 
then it leads into the chorus...

Chorus: I'm pretty sure this is how many times he plays each chord (play through two times)

e|-------------------------------------------------------------------------|
B|-------------------------------------------------------------------------|
G|-------------------------------------------------------------------------|
D|-7777-7777--3333--0000---------------------------------------------------|
A|-7777-7777--3333--0000---------------------------------------------------|
D|-7777-7777--3333--0000---------------------------------------------------|

There is absolutely no guitar through the entire second verse. After the second verse 
is all screaming), you start the chorus again, and play through it four times instead of 
times

And through the interlude, there is no guitar again (to my knowledge), and then it gets 
the chorus again. Play the chorus four times.

Then after that chorus, it leads into guitar with heavy distortion playing this...

e|-------------------------------------------------------------------------|
B|-------------------------------------------------------------------------|
G|-------------------------------------------------------------------------|
D|---77777-77777--33333-33333----------------------------------------------|
A|---77777-77777--33333-33333----------------------------------------------|
D|---77777-77777--33333-33333----------------------------------------------|

Then that leads into the outro..

Outro:

e|--------------------------|----------------------------------------------|
B|--Plays through-twice-----|------------Finish with this------------------|
G|--------------------------|----------------------------------------------|
D|-7777-7777--3333--0000----|-----7--7~------------------------------------|
A|-7777-7777--3333--0000----|-----7--7~------------------------------------|
D|-7777-7777--3333--0000----|-----7--7~------------------------------------|

any mistakes =)
            
Tabs too difficult? Try these video lessons and learn fast.




comments powered by Disqus
↑ Back to top | Tablatures and chords are parodies/interpretations of the original songs. You may use it for private study, scholarship, research or language learning purposes only