» » »

Light With A Sharpened Edge Tabs (ver.1)

Artists:  A B C D E F G H I J K L M N O P Q R S T U V W X Y Z # 

Light With A Sharpened Edge Tabs (ver.1)

Used
Rating:
0/5 (0 votes)

Hard to play? Try these video lessons and learn fast.
                Tuning: Standard


Intro:
	B		D	       A	         G
e|----10-10-10-10-12-14-12-12-12-12-14-10-9-9-9-9-9-9--7-7-7-5-5---|
B|-----------------------------------------------------------------|
G|-----------------------------------------------------------------|
D|-----------------------------------------------------------------|
A|-----------------------------------------------------------------|
E|-----------------------------------------------------------------|
	B		D		A	G
e|--10-10-10-10-12-14-12-12-12-12-14-10-9-9-9-9-9-9--7-7-7-14-10-14-5--|
B|---------------------------------------------------------------------|
G|---------------------------------------------------------------------|
D|---------------------------------------------------------------------|
A|---------------------------------------------------------------------|
E|---------------------------------------------------------------------|


Verse:

B	    D
Free from the torment of sin
A	G
All this I'm giving up
	B	D	   A
Much as the sun would decide to give in
	  G
Explode into orange
	       B	      D	     A
And hear all the voices sing praise with hymns
	G
Mark the birth of a change
B	    D	  A
Free from the torment of sin
	G	G
All this I'm giving up

E-10-10-10-10-10-10-12-12-12-12-12-12----12-17----12-17----12-17----12-17--|
B-------------------------------------14-------14--------14-------14-------|
G--------------------------------------------------------------------------|
D--------------------------------------------------------------------------|
A--------------------------------------------------------------------------|
E--------------------------------------------------------------------------|

Repeat 2x


Chorus:
D	F#
It's not me
G
Buried wreckage my soul
D     F#	G
It's not me so who am I now

Bm	A	G
Over and over again
	A
Light with a sharpened edge
Bm	A		G
Cut through the black empty space we call sky
	A
Beginning the cycle that stays
Bm	A		G
And I know in my heart we all die
	A
Like the day and the night
Bm		A	G
Like the sun in the sky
G
All this I'm giving up

Chorus:

D    F#
It's not me
G
Buried wreckage my soul
D    F#	G
It's not me so who am I now?

Bridge:

B	Bflat
Is there another side?
D
Beyond the black and the white
B	Bflat
Place I could meet you by
D
A place on the other side
B	Bflat	D
I'll let you know when I go
D	D
When I'm gone

Interlude:

B	D	A	G
B	D	A	G

D	F#
It's not me
G
Buried wreckage my soul
D	F#	G
It's not me so who am I now?
            
Hard to play? Try these video lessons and learn fast. | Correct




comments powered by Disqus
↑ Back to top | Tablatures and chords are parodies/interpretations of the original songs. You may use it for private study, scholarship, research or language learning purposes only