» » »

Let It Bleed Tabs (ver.1)

Artists:  A B C D E F G H I J K L M N O P Q R S T U V W X Y Z # 

Let It Bleed Tabs (ver.1)

Used
Rating:
0/5 (0 votes)

Hard to play? Try these video lessons and learn fast.
                
Tuning: Drop C (low to high DAFCGC)

Intro/Verse:

D|-------------------------------------------------------------------------|
A|-----10-10----------10-10------------------------------------------------|
F|-----10-10----------10-10------------14-14--------14-14-------10--12-----|
C|--88-------8/10-10---------10/-12-12-15-15--12\00-15-15-0000---x--x------|
G|--88-------8/10-10---------10/-12-12--------12\00-------0000---8--10-----|
C|--88-------8/10-10---------10/-12-12--------12\00-------0000-------------|


  Prechorus:                Chorus:

D|-------------------------|--------------------------------------------------|
A|-------------------------|10-10-10-10/-10-10-10-10-\-10-10-10-10-10-10-10---|
F|--14-14-14-17-17-17-15-15|10-10-10-10/-10-10-10-10-\-10-10-10-10-10-10-10---|
C|--15-15-15-15-15-15-15-15|-8--8--8--8/-10-10-10-10-\--0--0--0--0--0--0--0---|
G|--12-12--0--0--0--0--0--0|-8--8--8--8/-10-10-10-10-\--0--0--0--0--0--0--0---|
C|--12-12--0--0--0--0--0--0|-8--8--8--8/-10-10-10-10-\--0--0--0--0--0--0--0---|

Verse 2: Guitar 1

D|-------------------------------------------------------------------------|
A|-----10-10----------10-10------------------------------------------------|
F|-----10-10----------10-10------------14-14--------14-14-------10--12-----|
C|--88-------8/10-10---------10/-12-12-15-15--12\00-15-15-0000---x--x------|
G|--88-------8/10-10---------10/-12-12--------12\00-------0000---8--10-----|
C|--88-------8/10-10---------10/-12-12--------12\00-------0000-------------|

Verse 2: Guitar 2

D|-------------------------------------------|
A|--13/15-15-15\-13/15-15-15\-13/15-15-15\---|
F|---x/-x--x--x\--x/-x--x--x\--x/-x--x--x\---|
C|--10/12-12-12\-10/12-12-12\-10/12-12-12\---|
G|-------------------------------------------|
C|-------------------------------------------|

Prechorus

Chorus

Fill:

D|-------|
A|-------|
F|-------|
C|--0----|
G|--0----|
C|--0----|

Bridge:

D|-------------------------------------------|
A|-------------------------------------------|
F|--14-14-14-10-10-10-12-12-12-7-7-7-7-7-7---|
C|---x--x--x--x--x--x--x--x--x-x-x-x-x-x-x---|
G|--12-12-12--8--8--8--8--8--8-5-5-5-5-5-5---|
C|-------------------------------------------|

D|------------------------------------------------------|
A|------------------------------------------------------|
F|------------------------------------------------------|
C|--777-333-555-000000-------------------------7-3-5-0~-|
G|--777-333-555-000000--- a few times then ----7-3-5-0~-|
C|--777-333-555-000000-------------------------7-3-5-0~-|

Verse:

D|-------------------------------------------------------------------------|
A|-----10-10----------10-10------------------------------------------------|
F|-----10-10----------10-10------------14-14--------14-14-------10--12-----|
C|--88-------8/10-10---------10/-12-12-15-15--12\00-15-15-0000---x--x------|
G|--88-------8/10-10---------10/-12-12--------12\00-------0000---8--10-----|
C|--88-------8/10-10---------10/-12-12--------12\00-------0000-------------|

Chorus as usual, with a second guitar doing this:

D|------------------------------------------------------------------------|
A|--15-15-15-15-15-15-17-17-17-17-13-13-13-13-13-13---15-15-15-15-15-15---|
F|---x--x--x--x--x--x--x--x--x--x--x--x--x--x--x--x----x--x--x--x--x--x---|
C|--12-12-12-12-12-12-14-14-14-14-10-10-10-10-10-10---12-12-12-12-12-12---|
G|------------------------------------------------------------------------|
C|------------------------------------------------------------------------|

D|---------------------------|-------------------------|
A|--17-17-17-17-18-18-18-18--|-15-15-15-15-15-15-17\---|
F|---x--x--x--x--x--x--x--x--|--x--x--x--x--x--x--x\---|
C|--14-14-14-14-15-15-15-15--|-12-12-12-12-12-12-14\---|
G|---------------------------|-------------------------|
C|---------------------------|-------------------------|

Outro:

D|------------------------------------------------------|
A|------------------------------------------------------|
F|------------------------------------------------------|
C|--777-333-555-000000-------------------------7-3-5-0~-|
G|--777-333-555-000000--- a few times then ----7-3-5-0~-|
C|--777-333-555-000000-------------------------7-3-5-0~-|
            
Hard to play? Try these video lessons and learn fast. | Correct




comments powered by Disqus
↑ Back to top | Tablatures and chords are parodies/interpretations of the original songs. You may use it for private study, scholarship, research or language learning purposes only