» » »

Used, Cut Up Angels Tabs (ver.2)

Artists:  A B C D E F G H I J K L M N O P Q R S T U V W X Y Z # 

Cut Up Angels Tabs (ver.2)

Used Tabs
Rating:
0/5 (0 votes)
Cut Up Angels lessons Tabs too difficult? Try these video lessons and learn fast
                Hey it is only one of my first tabs and i'm pretty sure i got most of it right, but i
accept any critisizm by any one of ya'll who don't like what you see, or hear. 


Tuning: the reg.

e|-----------------|------------------|
B|--7--------------|---8--------------|
G|----7p6h7p6h7p6h7|-----7p6h7p6h7p6h7|
D|-----------------|------------------|
A|-----------------|-x3---------------|
E|-----------------|------------------|

verse
e|-----------------------------|x4------
B|-------------------8-8-8/10/3|--------
G|-7-7---4-4---2-2-------------|(7)-----
D|-7-7---4-4---2-2-------------|(7)-----
A|-5-5-4-2-2-1-0-0-4-----------|(5)-----
E|-----------------------------|--------

Chorus
e|---------------------------------------
B|---------------------------------------
G|--55555555----------66666666-----------
D|--55555555-55555555-66666666-77777777--
A|--77777777-55555555-44444444-77777777--
E|-----------77777777----------55555555--

repeat verse and chorus x2
I'm 90% sure of this ,but on the 2nd chorus, and 2nd time around, i think it goes like
this- (if it sound's funny, just use the 1st way)
Chorus pt.2
e|-------------------------------------------------------------------------|
B|-------------------------------------------------------------------------|
G|--99999999----------77777777---------------------------------------------|
D|--99999999-99999999-77777777-(77777777)x3--------------------------------|
A|--77777777-99999999-55555555-(77777777)----------------------------------|
E|-----------77777777----------(55555555)----------------------------------|

the intro is the same as the bridge with this underlying it
e|-------------------------------------------------------------------------|
B|-------------------------------------------------------------------------|
G|-99999999----------77776677----------------------------------------------|
D|-99999999-99999999-77776677-77777777-------------------------------------|
A|-77777777-99999999-55554455-77777777-(repeat a lot)----------------------|
E|----------77777777----------55555555-------------------------------------|

play verse
after verse do this into the final chorus
e|-------------------------------------------------------------------------|
B|--8-8-8/10/3-------------------------------------------------------------|
G|------------7/--\9-------------------------------------------------------|
D|------------7/--\9-------------------------------------------------------|
A|------------5/--\7-blahblah-into-chorus----------------------------------|
E|-------------------------------------------------------------------------|

play chorus x4 on 4th time use chorus pt.2 
For outro play around with the intro and end on
G|--9~--
D|--9~--
A|--7~--



| /  slide up
| \  slide down
| h  hammer-on
| p  pull-off
| ~  vibrato
            
Submit corrections

comments powered by Disqus
↑ Back to top | Used Tabs for Cut Up Angels. Lyrics for acoustic guitar and electric guitar. Tablatures and chords are parodies/interpretations of the original songs. You may use it for private study, scholarship, research or language learning purposes only