» » »

Used, Buried Myself Alive Tabs (ver.3)

Artists:  A B C D E F G H I J K L M N O P Q R S T U V W X Y Z # 

Buried Myself Alive Tabs (ver.3)

Used Tabs
 Rating:
4/5 (18 votes)
Buried Myself Alive lessons Tabs too difficult? Try these video lessons and learn fast
1
                Artist : The Used
Song : Buried Myself Alive
Album : The Used


Dropped D Tunning

Legend=
h   = Hammer
p   = Pull Off
=   = Palm Mute
X   = Muted String
^   = Up Stroke
/   = Pick Scr*p Up
\   = Pick Scr*p Down

Intro
----------------------------------------------------------------------------------------|
----------------------------------------------------------------------------------------|
-------------------7-7-7-7-7-7-7-7------------------------------------------------------|
5-5-5-5-5-5-5-5----X-X-X-X-X-X-X-X-2-2-2-2-2-2-2-2----5-5-5-5-5-5-5-5----7-7-7-7--------|
5-5-5-5-5-5-5-5(x4)5-5-5-5-5-5-5-5-2-2-2-2-2-2-2-2(x4)3-3-3-3-3-3-3-3(x2)5-5-5-5-(x4)---|
5-5-5-5-5-5-5-5--------------------2-2-2-2-2-2-2-2--------------------------------------|
  ^   ^   ^   ^              ^   ^   ^   ^   ^   ^
Verse (To acomplish the sound like a key board, leave distortion on an place you finger 
your picking hand
over the 12th fret. When you hammer 5, on each string, don't release till you pull off 
or switch strings.)

E|-------------------------------------------------------|
B|-------------------------------------------------------|
G|-------------------h5-h7-p5-p0-h5-p0-h5-h7-p5-p0-h5-p0-| Repeat
D|-h5-h7-p5-p0-h5-p0-------------------------------------|
A|-------------------------------------------------------|
D|-------------------------------------------------------|

Note: The chorus kick in during the middle of the final verse riff. But the chorus is 
same as the Intro,
except the Pre Chorus (Palm muted part).

Pre-Chorus
E|-------------------------|
B|-------------------------|
G|-------------------------|
D|-4-4-4-4-4-4-4-4---------|
A|-4-4-4-4-4-4-4-4---------|
D|-4-4-4-4-4-4-4-4---------|
   = = = = Slowly ease off.

Then back to Verse, Pre-Chorus, then Chorus. Repeat Chorus then to Bridge.

Bridge (I Can't Remember 'cause I don't Have my Guitar with me but I'm perrty sure this 
close)
E|----------------------------------------------------------|
B|----------------------------------------------------------|
G|----------------------------------------------------------|
D|-7---7-7-5---5-5-2-2-2-2-2-2-7---7-7-5---5-5-2-2-2-2-2-2--|
A|-7---7-7-5---5-5-2-2-2-2-2-2-7---7-7-5---5-5-2-2-2-2-2-2--|
D|-7---7-7-5---5-5-2-2-2-2-2-2-7---7-7-5---5-5-2-2-2-2-2-2--|

Theres a pattern to this too but, well hell i typed you figure it out...
E|-------------------------------------------------|
B|-------------------------------------------------|
G|-------------------------------------------------|
D|-12-12-12-12-12-12-12-12-12-12-12-12-14-14-14-14-| Repeat twice
A|-12-12-12-12-12-12-12-12-12-12-12-12-14-14-14-14-|
D|-12-12-12-12-12-12-12-12-12-12-12-12-14-14-14-14-|

E|---------------------------------|
B|---------------------------------|
G|---------------------------------| Repeat then let the last chord ring.
D|-9-9-9-9-7-7-7-7-5-5-5-5-5-5-5-5-| Then intro the Pre-Chorus and into the Chorus
A|-7-7-7-7-5-5-5-5-3-3-3-3-3-3-3-3-|
D|---------------------------------|

Outro
1st Guitar
E|--------------------------------------------------------|
B|--------------------------------------------------------|
G|--------------------------------------------------------|
D|-5-Play this in the----------------4-Hit this as--------|
A|-5-pattern you hear----------------4-the final chord.---|
D|-5-'cause I'm not typing it, then;-4--------------------|

2nd Guitar
Runs through the Verse while the first guitar plays.

For fun; Outro (Put your finger over the 12th fret)
E|-------------------------------------------------------------------------------------|
B|-------------------------------------------------------------------------------------|
G|-h5-h7-p5-p0-h5-p0-------------------------------------------------------------------|
D|------------------h5-h7-p5-p0-h5-p0--------------------------------------------------|
A|-----------------------------------h5-h7-p5-p0-h5-p0---------------------------------|
D|----------------------------------------------------h5-h7-p5-p0-h5-p0-h3-h5-p3-p0----|

E|-------------------------------------------------------------------------------------|
B|-------------------------------------------------------------------------------------|
G|-------------------------------------------------------------------------------------|
D|-------------------------------------------------------------------------------------|
A|---------------\\\\\\\\\/////////-\\\\\\\\\\\--------------h7-h7-h7-h7-h7-h9-h9-h9---|
D|-//////////////---------/////////------------/////////////---------------------------|

Then the last part is feed back from some kind of instrument (Maybe a dildo).
            
Submit corrections

comments powered by Disqus
↑ Back to top | Used Tabs for Buried Myself Alive. Lyrics for acoustic guitar and electric guitar. 1 Tablatures and chords are parodies/interpretations of the original songs. You may use it for private study, scholarship, research or language learning purposes only