» » »

Used, Blue And Yellow Tabs (ver.5)

Artists:  A B C D E F G H I J K L M N O P Q R S T U V W X Y Z # 

Blue And Yellow Tabs (ver.5)

Used Tabs
Rating:
0/5 (0 votes)
Blue And Yellow lessons Tabs too difficult? Try these video lessons and learn fast
                the used
blue and yellow tab
Tuning: Drop D Tuning (DADGBe)

intro 2 times
-------------------------------------------------|
-------------------------------------------------|
---10-10-10-10--9--9----10-10-10-10-10-10-10-10--|
---x--x--x--x---x--x--0--8--8--8--8--8--8--8--8--|
---8--8--8--8---7--7--0--8--8--8--8--8--8--8--8--|
-0-0--0--0--0---0--0--0--8--8--8--8--8--8--8--8--|

piano to guitar
-------------------------------------------------|
---------5---------6-----------------------------|
---7--------------------------7------------------|
-------------------------------------------------|
-------------------------------------------------|
-------------------------------------------------|

Verse 4 times
-------------------------------------------------|
-------------------------------------------------|
---10-10-10-10--9--9----10-10-10-10-10-10-10-10--|
---x--x--x--x---x--x--0--8--8--8--8--8--8--8--8--|
---8--8--8--8---7--7--0--8--8--8--8--8--8--8--8--|
-0-0--0--0--0---0--0--0--8--8--8--8--8--8--8--8--|

Pre-Chorus
Second Guitar (Verse after 2 times)
----------------------------|
---10-10-10-10--------------|
----------------------------|
----------------------------|
----------------------------|
----------------------------|

Pre-Chorus
Second Guitar (I think this is accurate)
----------------------------|
-----6-----6-----6-----6----|
--9-9---9-9---9-9---9-9-----| goes through
----------------------------| about 6 times.
----------------------------|
----------------------------|

Chorus
-------------------------------------------------|
-------------------------------------------------|
-12-12-12-12-12-12-12-12-12-12-12-12-12-12-12-12-|
-10-10-10-10-10-10-10-10-10-10-10-10-10-10-10-10-|
-10-10-10-10-10-10-10-10-10-10-10-10-10-10-10-10-|
-10-10-10-10-10-10-10-10-10-10-10-10-10-10-10-10-|
              16 times each
-------------------------------------------------|
-------------------------------------------------|
10-10-10-10-10-10-10-10-10-10-10-10-10-10-10-10--|
-8--8--8--8--8--8--8--8--8--8--8--8--8--8--8--8--|
-8--8--8--8--8--8--8--8--8--8--8--8--8--8--8--8--|
-8--8--8--8--8--8--8--8--8--8--8--8--8--8--8--8--|

-------------------------------------------------|
-------------------------------------------------|
-5-5-5-5-5-5-5-5-5-5-5-5-5-5---------------------|
-0-0-0-0-0-0-0-3-3-3-3-3-3-3---------------------|
-0-0-0-0-0-0-0-3-3-3-3-3-3-3---------------------|
-0-0-0-0-0-0-0-3-3-3-3-3-3-3---------------------|

Bridge
-------------------------------------------------|
-------------------------------------------------|
-------------------------------------------------|
-3-----8h10h8--8-8-8-8-8-8-8---------------------|
-3-----8h10h8--8-8-8-8-8-8-8---------------------|
-3-----8h10h8--8-8-8-8-8-8-8---------------------|
               * * * * * * *
-------------------------------------------------|
-------------------------------------------------|
-------------------------------------------------|
-3-----8h10h8--8-8-8-8-8-8-8---------------------|
-3-----8h10h8--8-8-8-8-8-8-8---------------------|
-3-----8h10h8--8-8-8-8-8-8-8---------------------|
               * * * * * * *
-------------------------------------------------|
-------------------------------------------------|
-------------------------------------------------|
-3-----8h10h8--8-8-8-8-8-8-8---------------------|
-3-----8h10h8--8-8-8-8-8-8-8---------------------|
-3-----8h10h8--8-8-8-8-8-8-8---------------------|
               * * * * * * *
-------------------------------------------------|
-------------------------------------------------|
-------------------------------------------------|
-3-----8h10h8--8-8-8-8-8-8-8-8-8-8-8-8-8-8-8-8-8-|
-3-----8h10h8--8-8-8-8-8-8-8-8-8-8-8-8-8-8-8-8-8-|
-3-----8h10h8--8-8-8-8-8-8-8-8-8-8-8-8-8-8-8-8-8-|


outro, piano to guitar (2:35 to end.)
---10-------------------|
------8-----------------|
--------11--------------| about 52 times,
------------------------| fade out at last 2.
------------------------|
------------------------|

Outro
-------------------------------------------------|
-------------------------------------------------|
-------------------------------------------------|
-8-8/10-10/0-0/3-3/8-8/10-10\0-0/3-3/8-----------|
-8-8/10-10/0-0/3-3/8-8/10-10\0-0/3-3/8-----------|
-8-8/10-10/0-0/3-3/8-8/10-10\0-0\3-3/8-----------|

-------------------------------------------------|
-------------------------------------------------|
-------------------------------------------------|
8/10-10\0-0/3-3/8-8/10-10\0-0/3-3/8-8/10---------|
8/10-10\0-0/3-3/8-8/10-10\0-0/3-3/8-8/10---------|
8/10-10\0-0/3-3/8-8/10-10\0-0/3-3/8-8/10---------|

Outro (Continued)
-------------------|
-------------------|
-------------------|
-10\0~~~-----------|
-10\0~~~-----------|
-10\0~~~-----------|

Song Order
Verse x6
Pre-Chorus x5
Chorus x1
Verse x6
Pre-Chorus x5
Chorus x2
Bridge x1
Chorus x4
Outro x1



and again please rate my tab, thanks. :)
haha I love this song thats why I tabbed it.
            
Submit corrections

comments powered by Disqus
↑ Back to top | Used Tabs for Blue And Yellow. Lyrics for acoustic guitar and electric guitar. Tablatures and chords are parodies/interpretations of the original songs. You may use it for private study, scholarship, research or language learning purposes only