» » »

Used, Blue And Yellow Bass tabs (ver.2)

Artists:  A B C D E F G H I J K L M N O P Q R S T U V W X Y Z # 

Blue And Yellow Bass tabs (ver.2)

Used Tabs
 Rating:
4/5 (5 votes)
Blue And Yellow lessons Tabs too difficult? Try these video lessons and learn fast
1
                Blue and Yellow - THe USed


Verse
G|--------------------------------|
D|--------------------------------|
A|--0/555/777---------------------|
E|------------5/666---------------|
B|--------------------------------|

Pre Chorus
G|------------------------|
D|------------------------|
A|------------------------|
E|-------6666-------------|
B|-1111-------------------|

Chorus
G|--------------------------------------------------------------|
D|--------------------------------------------------------------|
A|-11111/33333/55555/88888--------------------------------------|
E|-------------------------88888/10101010101010/121212121212/15-|
B|--------------------------------------------------------------|


(repeat verse)
(repeat pre chorus)
(repeat Chorus)

Adlib
G|--------------------|
D|-0------------------|
A|--------------------|
E|--------------------|
B|----1/2/1-----------|



Tnx to my band 305
-rev
-myles
-louiee
-jem
-j.m.
            
Submit corrections

comments powered by Disqus
↑ Back to top | Used Bass for Blue And Yellow. Lyrics for acoustic guitar and electric guitar. 1 Tablatures and chords are parodies/interpretations of the original songs. You may use it for private study, scholarship, research or language learning purposes only