» » »

Blood On My Hands Tabs (ver.3)

Artists:  A B C D E F G H I J K L M N O P Q R S T U V W X Y Z # 

Blood On My Hands Tabs (ver.3)

Used
Rating:
0/5 (0 votes)

Hard to play? Try these video lessons and learn fast.
                The tab is in Drop D.

Intro:

Guitar One

-xxxxxxxxxxxxxxxxxxxxx-------------------------------|
-xxxxxxxxxxxxxxxxxxxxx-------------------------------|
-xxxxxxxxxxxxxxxxxxxxx-------------------------------|
-xxxxxxxxxxxxxxxxxxxxx--121212-----------------------|
-xxxxxxxxxxxxxxxxxxxxx--121212-----------------------|
-xxxxxxxxxxxxxxxxxxxxx--121212-----------------------|

Basically just lightly hold your finger over the fret board and slowly move it up the 
while strumming, finishing on the twelfth fret.

Guitar Two

-----------------------------------------------------|
-----------------------------------------------------|
-----------------------------------------------------|
------------------------8-8--------------------------|
--8p0-8h10p8p0--x-7---------8------------------------|
-----------------------------------------------------|
(till the end of Guitar One’s strumming)

Intro Two:

Guitar One

---------------------------------------------------------------------------|
---------------------------------------------------------------------------|
---------------------------------------------------------------------------|
-0------3-----8-----0------3------0------3-----8-----3------2-----111-0----|
-0-x-12-3-x-6-8-x-6-0-x-12-3-x-12-0-x-12-3-x-6-8-x-6-3-x 12-2-x-6-111-0----|
-0------3-----8-----0------3------0------3-----8-----3------2-----111-0----|


Guitar Two

--------------------------------------------------------------------|
--------------------------------------------------------------------|
----------------------------------15p0-14p0------15p0-14p0----------|
-15p0-15h17p15p0-15p0-15h17p15p0------------15p0-----------15p0-----|
--------------------------------------------------------------------|
--------------------------------------------------------------------|

--------------------------------------------------------|
--------------------------------------------------------|
---------------------------------17p0-15p0-14p0-121212--|
15p0-15h17p15p0-15p0-15h17p15p0-------------------------|
--------------------------------------------------------|
--------------------------------------------------------|

--------------------------------------------------------------------|
--------------------------------------------------------------------|
----------------------------------15p0-14p0------15p0-14p0----------|
-15p0-15h17p15p0-15p0-15h17p15p0------------15p0-----------15p0-----|
--------------------------------------------------------------------|
--------------------------------------------------------------------|


-------------------------------------------------------------|
-------------------------------------------------------------|
-------------------------------------------------------------|
-15p0-15h17p15p0-15p0-15h17p15p0-14p0-14h15p14p0-131313-12---|
-------------------------------------------------131313-12---|
-------------------------------------------------131313-12---|

Verse:

There is no guitar here except for a pick slide that goes into the chorus.

Chorus:

Guitar One

---------------------------------------------------------------------------|
---------------------------------------------------------------------------|
---------------------------------------------------------------------------|
-0------3-----8-----0------3------0------3-----8-----3------2-----111-0----|
-0-x-12-3-x-6-8-x-6-0-x-12-3-x-12-0-x-12-3-x-6-8-x-6-3-x 12-2-x-6-111-0----|
-0------3-----8-----0------3------0------3-----8-----3------2-----111-0----|


Repeat Verse
Repeat Chorus

Bridge:

------------------------------------------------------------|
------------------------------------------------------------|
------------------------------------------------------------|
-1-1-0--1-1-0--1-1-0--1-1-0--1-1-0--1-1-xxx1-xxx1-xxxxxxxxx-|
-1-1-0--1-1-0—-1-1-0--1-1-0--1-1-0--1-1-xxx1-xxx1-xxxxxxxxx-|
-1-1-0--1-1-0—-1-1-0--1-1-0--1-1-0--1-1-xxx1-xxx1-xxxxxxxxx-|

There is also another guitar here that is doing pick slides in the background.


-----------------------------------------------------|
-----------------------------------------------------|
-----------------------------------------------------|
-xxx1-xxx1-xxx1-xxx1-xxx1-xxx1-xxx1-xxxxxxxxx--------|
-xxx1-xxx1-xxx1-xxx1-xxx1-xxx1-xxx1-xxxxxxxxx--------|
-xxx1-xxx1-xxx1-xxx1-xxx1-xxx1-xxx1-xxxxxxxxx--------|

-----------------------------------------------------|
-----------------------------------------------------|
-----------------------------------------------------|
-xxx1-xxx1-xxx1-xxx1-xxx1-xxx1-xxx1-111-0------------|
-xxx1-xxx1-xxx1-xxx1-xxx1-xxx1-xxx1-111-0------------|
-xxx1-xxx1-xxx1-xxx1-xxx1-xxx1-xxx1-111-0------------|


Repeat Chorus x 2

Outro:

-----------------------------------------------------|
-----------------------------------------------------|
-----------------------------------------------------|
-111-0-111-0--111-0--111-----------------------------|
-111-0-111-0--111-0--111-----------------------------|
-111-0-111-0--111-0--111-----------------------------|
            
Hard to play? Try these video lessons and learn fast. | Correct




comments powered by Disqus
↑ Back to top | Tablatures and chords are parodies/interpretations of the original songs. You may use it for private study, scholarship, research or language learning purposes only