» » »

Used, Back Of Your Mouth Bass tabs (ver.2)

Artists:  A B C D E F G H I J K L M N O P Q R S T U V W X Y Z # 

Back Of Your Mouth Bass tabs (ver.2)

Used Tabs
Rating:
0/5 (0 votes)
Back Of Your Mouth lessons Tabs too difficult? Try these video lessons and learn fast
                The Back of Your Mouth - The Used
Tuning - Drop D

Intro/main riff (0:10)
G|-------------|x3|---------------------|
D|-------------|x3|-0-------------------|
A|----------1--|x3|--4-3-3-5-1-1-1------|
D|-0-3-5--5---0|x3|----------------5~---|

Verse
G|--------------------------------------|
D|--------------------------------------|
A|--------------------------------------|
D|-------------------------035~-----5~--|

G|-------------|x3|---------------------|
D|-------------|x3|-0-------------------|
A|----------1--|x3|--4-3-3-5-1111-------|
D|-0-3-5--5---0|x3|---------------------|

Chorus
G|-------------------------------------------|x2
D|-------------------------------------------|x2
A|-------------------------------------------|x2
D|-555-55555-444-44444-333-33333-222-1111-0--|x2

Main riff

Verse 

Chorus x2

Bridge
G|-------------------------|x3
D|-------------------------|x3
A|-------------------------|x3
D|--5~--4~--3~--2~--1~-----|x3

G|---------------------------|
D|---------------------------|
A|---------------------------|
D|-55-55-44-44-33-33-2~-0345-|

Chorus x3

Main riff 

Outro
G|-------------------------|
D|-------------------------|
A|-------------------------|
D|--8--7--5--3-0-3-4-5~----|
            

comments powered by Disqus
↑ Back to top | Used Bass for Back Of Your Mouth. Lyrics for acoustic guitar and electric guitar. Tablatures and chords are parodies/interpretations of the original songs. You may use it for private study, scholarship, research or language learning purposes only