» » »

Used, All That I've Got Tabs (ver.4)

Artists:  A B C D E F G H I J K L M N O P Q R S T U V W X Y Z # 

All That I've Got Tabs (ver.4)

Used Tabs
 Rating:
4/5 (4 votes)
All That I've Got lessons Tabs too difficult? Try these video lessons and learn fast
1
                (2)
The Used
All That I've Got
In Love and Death
Standard Tuning (EADGBE)

hey guys. this is my first tab so i dont know how correct it is but it sounds ok to me. enjoy =]

() = Ghost note (played quietly)
X = Dead note
\ = Slide out

INTRO

Guitar One (clean)

|-10-------10-------0-------0------|
|----8-7-8----8-7-8---8-7-8---8-7-8|
|----------------------------------| (x4)
|----------------------------------|  
|----------------------------------|
|----------------------------------|

Guitar Two (comes in after Guitar One plays twice)(distorted)

|-----------------------------------------------------------------------|
|----------------------------------------------------------------3-3-3-3|
|----------7-7-7-7--7-7-7-7--7-7-7-7--7-7-7-7--7-7-7-7--7-7-7-7--4-4-4-4|
|-5-5-5-5--7-7-7-7--5-5-5-5--7-7-7-7--9-9-9-9--7-7-7-7--5-5-5-5--2-2-2-2|
|-5-5-5-5--5-5-5-5--3-3-3-3--5-5-5-5--7-7-7-7--5-5-5-5--3-3-3-3--0-0-0-0|
|-3-3-3-3-----------------------------0-0-0-0---------------------------|

VERSE ONE

Guitar One (Acoustic)

|-------------0-------------0---------------0-------------0|
|-------------0-------------0---------------0-------------0|
|---------12-12---------12-12-----------12-12---------12-12| (x4)
|---------12-12---------12-12-----------12-12---------12-12|
|----------------------------------------------------------|
|-(8)-(8)-------(8)-(8)-------(10)-(10)-------(0)-(0)------| 

|------------------------|
|-12-12-12-12-12-12-12-12|
|-12-12-12-12-12-12-12-12|
|------------------------|
|------------------------|
|------------------------|

(Guitar Two comes in here)

|-------------0-------------0---------------0-------------0|
|-------------0-------------0---------------0-------------0|
|---------12-12---------12-12-----------12-12---------12-12| (x4)
|---------12-12---------12-12-----------12-12---------12-12|
|----------------------------------------------------------|
|-(8)-(8)-------(8)-(8)-------(10)-(10)-------(0)-(0)------| 

|------------------------|
|-12-12-12-12-12-12-12-12|
|-12-12-12-12-12-12-12-12|
|------------------------|
|------------------------|
|------------------------|

Guitar Two (Clean)

comes in halfway through

|----------------------------------------------------------------|
|----------------------------------------------------------------|
|-0-0-0-0-0-0-0-0-2-2-2-4-4-4-4-7-7-0-0-0-0-0-0-0-2-2-2-4-4-4-4-0|
|----------------------------------------------------------------|
|----------------------------------------------------------------|
|----------------------------------------------------------------|

CHORUS

Guitar One (Distorted)

|-----------------------------------------------------------------------|
|----------------------------------------------------------------3-3-3-3|
|----------7-7-7-7--7-7-7-7--7-7-7-7--7-7-7-7--7-7-7-7--7-7-7-7--4-4-4-4|
|-5-5-5-5--7-7-7-7--5-5-5-5--7-7-7-7--9-9-9-9--7-7-7-7--5-5-5-5--2-2-2-2|x2
|-5-5-5-5--5-5-5-5--3-3-3-3--5-5-5-5--7-7-7-7--5-5-5-5--3-3-3-3--0-0-0-0|
|-3-3-3-3-----------------------------0-0-0-0---------------------------|

Guitar Two

|---|
|---|
|-7-|
|-X-| (x64) =P
|-5-|
|---|

BREAK

Guitar One (Clean)

|-10-------10------|
|----8-7-8----8-7-8|
|------------------| 
|------------------|
|------------------|
|------------------|

Guitar Two (Clean)

|-14----14----14----14---|
|------------------------|
|----11----11----11----11|
|------------------------| 
|------------------------|
|------------------------|

VERSE TWO

Guitar One (Acoustic)

|-------------0-------------0---------------0-------------0|
|-------------0-------------0---------------0-------------0|
|---------12-12---------12-12-----------12-12---------12-12| (x4)
|---------12-12---------12-12-----------12-12---------12-12|
|----------------------------------------------------------|
|-(8)-(8)-------(8)-(8)-------(10)-(10)-------(0)-(0)------| 

|------------------------|
|-12-12-12-12-12-12-12-12|
|-12-12-12-12-12-12-12-12|
|------------------------|
|------------------------|
|------------------------|

Guitar Two (Clean)

|----------------------------------------------------------------|
|----------------------------------------------------------------|
|-0-0-0-0-0-0-0-0-2-2-2-4-4-4-4-7-7-0-0-0-0-0-0-0-2-2-2-4-4-4-4-0|
|----------------------------------------------------------------|
|----------------------------------------------------------------|
|----------------------------------------------------------------|

BRIDGE (one guitar part)

Guitar One (Distorted)

|--------------------------------|
|--------------------------------|
|--------------------------------|
|--------------------------------| (x4)
|-----------------3-3-3-3-5-5-5-5|
|-0-0-0-2-3-3-3-3----------------|

VERSE THREE (one guitar part)

Guitar One (Acoustic)

|-------------0-------------0---------------0-------------0|
|-------------0-------------0---------------0-------------0|
|---------12-12---------12-12-----------12-12---------12-12| 
|---------12-12---------12-12-----------12-12---------12-12|
|----------------------------------------------------------|
|-(8)-(8)-------(8)-(8)-------(10)-(10)-------(0)-(0)------| 

Guitar One (Acoustic)

|-------------0-------------0---------------0-----------|
|-------------0-------------0---------------0-----------|
|---------12-12---------12-12-----------12-12-----------|
|---------12-12---------12-12-----------12-12-----------|
|-------------------------------------------------------|
|-(8)-(8)-------(8)-(8)-------(10)-(10)-------(0)-(0)-0\|

FINAL CHORUS (only the first part is different from the other choruses)

Guitar One (Distorted)

|------------------------------------------------|
|-12-12-12-12-12-12-12-12-12-12-12-12-12-12-12-12|
|-12-12-12-12-12-12-12-12-12-12-12-12-12-12-12-12|
|------------------------------------------------|
|------------------------------------------------|
|------------------------------------------------|

|-----------------------------------|
|----------------------------3-3-3-3|
|-7-7-7-7--7-7-7-7--7-7-7-7--4-4-4-4|
|-9-9-9-9--7-7-7-7--5-5-5-5--2-2-2-2|
|-7-7-7-7--5-5-5-5--3-3-3-3--0-0-0-0|
|-0-0-0-0---------------------------|


|-----------------------------------------------------------------------|
|----------------------------------------------------------------3-3-3-3|
|----------7-7-7-7--7-7-7-7--7-7-7-7--7-7-7-7--7-7-7-7--7-7-7-7--4-4-4-4|
|-5-5-5-5--7-7-7-7--5-5-5-5--7-7-7-7--9-9-9-9--7-7-7-7--5-5-5-5--2-2-2-2|
|-5-5-5-5--5-5-5-5--3-3-3-3--5-5-5-5--7-7-7-7--5-5-5-5--3-3-3-3--0-0-0-0|
|-3-3-3-3-----------------------------0-0-0-0---------------------------|


Guitar Two (Distorted)

|------------------------------------------------|
|-12-12-12-12-12-12-12-12-12-12-12-12-12-12-12-12|
|-12-12-12-12-12-12-12-12-12-12-12-12-12-12-12-12|
|------------------------------------------------|
|------------------------------------------------|
|------------------------------------------------|


|---|
|---|
|-7-|
|-X-| (x48)
|-5-|
|---|


OUTRO

Guitar One (clean)

|-10-------10-------0-------0------|
|----8-7-8----8-7-8---8-7-8---8-7-8|
|----------------------------------| (x2)
|----------------------------------|  
|----------------------------------|
|----------------------------------|

|-10---------------10--------------|
|----8-7-8-7-8-7-8----8-7-8-7-8-7-8|
|----------------------------------|
|----------------------------------|
|----------------------------------|
|----------------------------------|

Guitar Two (Acoustic)

|-------------0-------------0---------------0-------------0|
|-------------0-------------0---------------0-------------0|
|---------12-12---------12-12-----------12-12---------12-12| (x2) 
|---------12-12---------12-12-----------12-12---------12-12|
|----------------------------------------------------------|
|-(8)-(8)-------(8)-(8)-------(10)-(10)-------(0)-(0)------| 




Song Structure

INTRO
VERSE ONE
CHORUS
BREAK
VERSE TWO
CHORUS
BRIDGE
BREAK
VERSE THREE
FINAL CHORUS
BRIDGE (only place half of it though)
BREAK (x2)
OUTRO

thanks, please let me know if ive made any mistakes =)
            
Submit corrections

comments powered by Disqus
↑ Back to top | Used Tabs for All That I've Got. Lyrics for acoustic guitar and electric guitar. 1 Tablatures and chords are parodies/interpretations of the original songs. You may use it for private study, scholarship, research or language learning purposes only