» » »

All That I've Got Tabs (ver.3)

Artists:  A B C D E F G H I J K L M N O P Q R S T U V W X Y Z # 

All That I've Got Tabs (ver.3)

Used
Rating:
0/5 (0 votes)

Hard to play? Try these video lessons and learn fast.
                (1)

GUITAR I- Lead
GUITAR II- Rythm

INTRO:
GUITAR I:PLAY THIS TWICE
|10-----------------------------10-------------|
|--8-7-8--8-7-8--5-8-7-8--8-7-8---8-7-8-5-8-7-8|
|----------------------------------------------|           
|----------------------------------------------|
|----------------------------------------------| 
|----------------------------------------------|
(CONTINUED)
|----------------------------------------------|
|5-8-7-8-8-7-5---------------------------------|
|----------------------------------------------|           
|----------------------------------------------|
|----------------------------------------------| 
|----------------------------------------------|

OR(OPTIONAL) (Thanks to "a7xriseagainst") 
(PLAY THIS FOUR TIMES)
|-10------10-----------------------------------|
|---8-7-8---8-7-8--5-8-7-8--5-8-7-8------------|
|----------------------------------------------|           
|----------------------------------------------|
|----------------------------------------------| 
|----------------------------------------------|

GUITAR II:WILL ENTER ON THE SECOND TIME..
|-----------------------------------------------|
|-----------------------------------------------|
|--------7-7-7-7-5-5-5-5-7-7-7-7---------7-7-7-7|           
|5-5-5-5-7-7-7-7-5-5-5-5-7-7-7-7-2-2-2-2-7-7-7-7|
|5-5-5-5-5-5-5-5-3-3-3-3-5-5-5-5-2-2-2-2-5-5-5-5| 
|3-3-3-3-------------------------0-0-0-0--------|
(CONTINUED)
|-----------------------------------------------|
|-----------------------------------------------|
|5-5-5-5-2-2-2-2--------------------------------|           
|5-5-5-5-2-2-2-2--------------------------------|
|3-3-3-3-0-0-0-0--------------------------------| 
|-----------------------------------------------|

VERSE I:(PLAY THIS FOUR TIMES)
(BOTH GUITARS)
|---3-0~~---3-0~~---3-0~~---3-0~~---------------|
|---3-3~~---3-3~~---3-3~~---3-3~~---------------|
|---0-0~~---0-0~~---0-0~~---0-0~~---------------|           
|---2-2~~---2-2~~---2-2~~---2-2~~---------------|
|---3-3~~---3-3~~---3-3~~---3-3~~---------------| 
|3~---------------------------------------------|
AFTER FOUR TIMES,
|-----------------------------------------------|
|-8-8-8-8-8-8-8-8-------------------------------|
|-7-7-7-7-7-7-7-7-------------------------------|           
|-----------------------------------------------|
|-----------------------------------------------| 
|-----------------------------------------------|

THEN REPEAT AGAIN FOR FOUR TIMES..
|---3-0~~---3-0~~---3-0~~---3-0~~---------------|
|---3-3~~---3-3~~---3-3~~---3-3~~---------------|
|---0-0~~---0-0~~---0-0~~---0-0~~---------------|           
|---2-2~~---2-2~~---2-2~~---2-2~~---------------|
|---3-3~~---3-3~~---3-3~~---3-3~~---------------| 
|3~---------------------------------------------|
AFTER FOUR TIMES,
|-----------------------------------------------|
|-8-8-8-8-8-8-8-8-------------------------------|
|-7-7-7-7-7-7-7-7-------------------------------|           
|-----------------------------------------------|
|-----------------------------------------------| 
|-----------------------------------------------|

CHORUS:PLAY THIS TWICE
(BOTH GUITARS)
|-----------------------------------------------|
|-----------------------------------------------|
|--------7-7-7-7-5-5-5-5-7-7-7-7---------7-7-7-7|           
|5-5-5-5-7-7-7-7-5-5-5-5-7-7-7-7-2-2-2-2-7-7-7-7|
|5-5-5-5-5-5-5-5-3-3-3-3-5-5-5-5-2-2-2-2-5-5-5-5| 
|3-3-3-3-------------------------0-0-0-0--------|
(CONTINUED)
|-----------------------------------------------|
|-----------------------------------------------|
|5-5-5-5-2-2-2-2--------------------------------|           
|5-5-5-5-2-2-2-2--------------------------------|
|3-3-3-3-0-0-0-0--------------------------------| 
|-----------------------------------------------|

VERSE II:

(GUITAR I)
|14-14-------14-14------------------------------|
|------11-12-------11-12-11---------------------|
|-----------------------------------------------|
|-----------------------------------------------|
|-----------------------------------------------|
|-----------------------------------------------|
THEN BOTH GUITARS PLAY THIS..
PLAY THIS FOR FOUR TIMES.
|---3-0~~---3-0~~---3-0~~---3-0~~---------------|
|---3-3~~---3-3~~---3-3~~---3-3~~---------------|
|---0-0~~---0-0~~---0-0~~---0-0~~---------------|           
|2--2-2~~---2-2~~---2-2~~---2-2~~---------------|
|3--3-3~~---3-3~~---3-3~~---3-3~~---------------|
|3----------------------------------------------|

CHORUS:PLAY THIS TWICE
(BOTH GUITARS)
|-----------------------------------------------|
|-----------------------------------------------|
|--------7-7-7-7-5-5-5-5-7-7-7-7---------7-7-7-7|           
|5-5-5-5-7-7-7-7-5-5-5-5-7-7-7-7-2-2-2-2-7-7-7-7|
|5-5-5-5-5-5-5-5-3-3-3-3-5-5-5-5-2-2-2-2-5-5-5-5| 
|3-3-3-3-------------------------0-0-0-0--------|
(CONTINUED)
|-----------------------------------------------|
|-----------------------------------------------|
|5-5-5-5-2-2-2-2--------------------------------|           
|5-5-5-5-2-2-2-2--------------------------------|
|3-3-3-3-0-0-0-0--------------------------------| 
|-----------------------------------------------|

BRIDGE:REPEAT THIS FOUR TIMES

(GUITAR I & II)
|-----------------------------------------------|
|-----------------------------------------------|
|-----------------------------------------------|           
|-----------------------------------------------|
|-----------------3-3-3-3-5-5-5-5---------------| 
|-0-0-0-2-3-3-3-3-------------------------------|

THEN,BOTH PLAYING AT THE SAME TIME.
(GUITAR II)
|-10----------10-------------------|
|----8--7--8-----8--7--8-----------|
|----------------------------------|           
|----------------------------------|
|----------------------------------| 
|----------------------------------|


(GUITAR I)
|----------------------------------|
|7h87h87h87h87h87h87h87h8-7\-------|
|----------------------------------|           
|----------------------------------|
|----------------------------------| 
|----------------------------------|

THEN,
GUITAR I:PLAY THIS TWO TIMES

|---3-0~~---3-0~~---3-0~~---3-0~~---------------|
|---3-3~~---3-3~~---3-3~~---3-3~~---------------|
|---0-0~~---0-0~~---0-0~~---0-0~~---------------|           
|2--2-2~~---2-2~~---2-2~~---2-2~~---------------|
|3--3-3~~---3-3~~---3-3~~---3-3~~---------------|
|3----------------------------------------------|

FINAL CHORUS:

|------------------------------------------------|
|------------------------------------------------|
|------------------------------------------------|           
|-12-12-12-12-12-12-12-12-12-12-12-12-12-12-12-12|
|-12-12-12-12-12-12-12-12-12-12-12-12-12-12-12-12| 
|-10-10-10-10-10-10-10-10-10-10-10-10-10-10-10-10|
(CONTINUED)
|------------------------------------------------|
|------------------------------------------------|
|---------7-7-7-7-5-5-5-5-2-2-2-2---------7-7-7-7|
|-2-2-2-2-7-7-7-7-5-5-5-5-2-2-2-2-5-5-5-5-7-7-7-7|           
|-2-2-2-2-5-5-5-5-3-3-3-3-0-0-0-0-5-5-5-5-5-5-5-5|
|-0-0-0-0-------------------------3-3-3-3--------| 
(CONTINUED)
|------------------------------------------------|
|------------------------------------------------|
|-5-5-5-5-7-7-7-7---------7-7-7-7-5-5-5-5-2-2-2-2|           
|-5-5-5-5-7-7-7-7-2-2-2-2-7-7-7-7-5-5-5-5-2-2-2-2|
|-3-3-3-3-5-5-5-5-2-2-2-2-5-5-5-5-3-3-3-3-0-0-0-0| 
|-----------------0-0-0-0------------------------|

OUTRO:
(BOTH GUITARS)
|-----------------------------------------------|
|-----------------------------------------------|
|-----------------------------------------------|           
|-----------------------------------------------|
|-----------------3-3-3-3-5-5-5-5---------------| 
|-0-0-0-2-3-3-3-3-------------------------------|
(CONTINUED)
|-----------------------------------------------|
|-----------------------------------------------|
|-----------------------------------------------|           
|-----------------------------------------------|
|-----------------3-3-3-3-5-5-5-5---------------| 
|-0-0-0-2-3-3-3-3-----------------3~------------|

THEN,
(BOTH GUITARS)
(PLAY TWICE)
|10-----------------10---10---------------------|
|---X-8-7-8-5-8-7-8----8----8-5-8-7-------------|
|-----------------------------------------------|           
|-----------------------------------------------|
|-----------------------------------------------| 
|-----------------------------------------------|

THEN END WITH:

|10-----------------10-----------|
|---8-7-8-7-8-7-8-7----8-7-8-7-8~|
|--------------------------------|           
|--------------------------------|
|--------------------------------| 
|--------------------------------|
            
Hard to play? Try these video lessons and learn fast. | Correct




comments powered by Disqus
↑ Back to top | Tablatures and chords are parodies/interpretations of the original songs. You may use it for private study, scholarship, research or language learning purposes only