>
 >
Yer Country

Yer Country Guitar Tabs

Us Bombs - Yer Country chords, tabs, tablatures, lyrics

Guitar lessons | Add/correct | Request | Top 50 tabs Artists:  A B C D E F G H I J K L M N O P Q R S T U V W X Y Z 0-9

Yer Country Guitar Tabs – Us Bombs

CD, Sheet music, Poster

Do you like Yer Country? Share with your friends now
Tabs
Band: US Bombs

*= mute chord
~= ring out chord

Intro:
e--------------------------------------------------------------------|
B--------------------------------------------------------------------|
G-----------------------------------2--2-2-2--2-2--------------------|
D----------------2----0--0-0-0-4-2----------------2----0--0-0-0-4-2--|
A--0--0-0-0--0-4----4--------------------------------4---------------|
E--------------------------------------------------------------------|

e------------------------------------------------------------------|
B--------------2---------------------------------------------------|
G--2--2-2-2--2---2-------------------------------------------------|
D---------------------0--0-0-0-4-2----------------2----0--0-0-0-4--|
A-------------------4---------------0--0-0-0--0-4----4-------------|
E------------------------------------------------------------------Fill:          x3
e----------------|-----|
B----------------|-----|
G--9--9-9-9-9-9--|--9--|
D--9--9-9-9-9-9--|--9--|
A--7--7-7-7-7-7--|--7--|
E----------------|-----|
      * * * * * 

Verse 1:
       A*          D*               e*
In yer country, it ain't no 'Tis of Thee'
       A*           D*            e*
In the country, I'm proud to be ashamed
    A*                       D*            e*
The sham of 69 gear'd up for riots against police
       A*           D*             Fill 
In the country it's rippin' at the seams...

Intro x1

Fill x1

Verse 2:
       A*            D*                e*
In the country Woody Gunthrie took the lumps
       A*              D*             e*
In the country, just a suitcase and a thumb
     A*                              D*                e*
Well if ya practice what ya preach I heard it makes ya smile
    A*               D*               Fill
The country boys are frowning all the while

Chorus Lead:                      x4
e--5-4-5-4-5-4-5-4-5-4-5-4-5-7-5-4--|
B--5-5-5-5-5-5-5-5-5-5-5-5-5-5-5-5--|
G-----------------------------------|
D-----------------------------------|
A-----------------------------------|
E-----------------------------------|

Chorus:
    A           D    e
The Barbed Wire Bop!
     A                             D              e
Bomb shelters in backyards, roller skating at the hop
A            D    e
Rebel, Rebel Rock!
A                               D                e
Peace and love was funny, understanding's just a crock

Chorus 2:
A      D     e
Rebel, Rebel Rock! (x3)
A     Fill
Rebel...

Verse 3:
    A*          D*                 e*
Yer country! it won't stop ****ing me
    A*            D*                 e*
Yer country, will crush you with its feet
A*                   D*        e*
Country groaning and moaning a hymn
A*                         D*    e~
The country of regulations never bend

Chorus 1 x1

Solo:(played over chorus)             x4
e------9--------------------------------|
B--10-----10---------12---10---9--------|
G------------9--9-9-----9----9---9-9-9--|
D---------------------------------------|
A---------------------------------------|
E---------------------------------------|





Comments


Popular Us Bombs tabs & chords
Just Like You Bass Tabs
Go Back Home Drum Tabs
Retreads Drum Tabs
Ballad Of Syd Intro Tabs
Die Alone Tabs
Lunch In A Sack Tabs
Skater Dater Tabs
Tora! Tora! Tora! Tabs
Us Bombs Intro Tabs
Youth Goes! Tabs


Song lyrics



↑ Back to top | Tablatures and chords are parodies/interpretations of the original songs. You may use it for private study, scholarship, research or language learning purposes only
© 2014 AZChords.com Contact us | Privacy policy | DMCA | Add/correct tabs | Request tabs | Top 50 tabs