» » »

Us Bombs, Roll Around Tabs (ver.1)

Artists:  A B C D E F G H I J K L M N O P Q R S T U V W X Y Z # 

Roll Around Tabs (ver.1)

Us Bombs Tabs
Rating:
5/5 (1 vote)
Roll Around lessons Tabs too difficult? Try these video lessons and learn fast
                Band: U.S. Bombs

*= mute chord

Intro Riff:
e----------------------------------------------------|
B----------------------------------------------------|
G-------------------4-3-6-----------------------8-6--|
D--3/4-4-4-3/4-4-4--4-3-6--3/4-4-4-3/4-4-4--4-3-8-6--|
A--3/4-4-4-3/4-4-4--2-1-4--3/4-4-4-3/4-4-4--4-3-6-4--|
E--1/2-2-2-1/2-2-2---------1/2-2-2-1/2-2-2--2-1------|

e----------------------------------------|
B----------------------------------------|
G-------------------4-3---6-----6-6-6-6--|
D--3/4-4-4-3/4-4-4--4-3-4-6-4---6-6-6-6--|
A--3/4-4-4-3/4-4-4--2-1-4-4-4---4-4-4-4--|
E--1/2-2-2-1/2-2-2------2---2------------|

Verse Lead:
e---------------------------------|--------------------------|
B--4-4-4-4h7-6-6-6-6p4------------|--4-4-4-4h7-6-6-6-7h9-----|
G----------------------6-6-6-6-6--|----------------------6~--|
D---------------------------------|--------------------------|
A---------------------------------|--------------------------|
E---------------------------------|--------------------------|

Verse 1:
    B*      C#*                          F#*
The UPS man just pulled up, he dropped a package on the steps
   B*            C#*               F#*
My ticket out is in that box, been waitin' for a month
  B*             C#*               F#*
I tore it up and ripped it out and slid on linoliem
    B*                 C#*             F#      
Unattachted, but I'm attached, I roll around

Intro Riff x1

Verse 2:
     B*                C#*              F#*
It's hot outside, it's dead inside, I'm out I'd rather melt
  B*              C#*            F#*
X-head is killing cats, smoked potatoes on the couch
B*              C#*                 F#*
No one's left I got in common, it's time to check out
    B*                C#*             F#*
Unattached, but I'm attached, I roll around

Chorus: x2
F#* Eb*    B*                C#*             F#*
       Unattached, but I'm attached, I roll around 

Riff 2: (key change)
e------------------------------------|
B------------------------------------|
G------------------------------------| x2
D---------1--1-3-1---1--3-3-3p1---1--|
A-----1-3----------3------------3----|
E--4---------------------------------|

Verse 3:
C#*           Eb*             G#*
Ya, i ****in' roll because my life's to ****in' short
      C#*           Eb*      G#*
Those marathon good byes one day will be for good
      C#*                Eb*         G#*
Break out and leave this life behind, that's my favorite song
  C#*                 Eb*            G#*
Unattached, but I'm attached, I roll around

Chorus 2: x4
G#  F    C#                Eb              G#
     Unattached, but I'm attached, I roll around 

Solo 2: (played during above chorus) 
         x5
e----------|------------------------------------9-9--9-9-9--11-11-11-11--|
B-------9--|--11b12-b12-b12r-9h11-9--9-9-9-9h11--------------------------|
G--8h10----|-------------------------------------------------------------|
D----------|-------------------------------------------------------------|
A----------|-------------------------------------------------------------|
E----------|-------------------------------------------------------------|

e--11p9p8-9p8p6-8p6p4-4-4---4-4--------------------------------------------|
B-------------------------6------6-6-6p4---4--4-4-4h6-4--------------------|
G----------------------------------------6--------------6-5-5-5/3-3-3-3/5--|
D--------------------------------------------------------------------------|
A--------------------------------------------------------------------------|
E--------------------------------------------------------------------------|

e-------------------------------|
B-------------------------------|
G--1h3-1--1-1h3-5-3--3-3/1-0-1--|
D-------------------------------|
A-------------------------------|
E-------------------------------|

Intro Riff (One full step up)
            

comments powered by Disqus
↑ Back to top | Us Bombs Tabs for Roll Around. Lyrics for acoustic guitar and electric guitar. Tablatures and chords are parodies/interpretations of the original songs. You may use it for private study, scholarship, research or language learning purposes only