» » »

John Gottie Tabs (ver.1)

Artists:  A B C D E F G H I J K L M N O P Q R S T U V W X Y Z # 

John Gottie Tabs (ver.1)

Us Bombs
Rating:
0/5 (0 votes)

Hard to play? Try these video lessons and learn fast.
                Title  : John Gottie
Artist : U.S. Bombs
Album  : Covert Action
Tuning : 1/2 step down

Notes  : b=bend, ()=sometimes played/barely heard


Intro/Chorus: Gtr 1 mostly plays power chords, while gtr 2 mostly plays barre chords.
     E    A   D    G     D
eb|--------------------------------------------------------------|
Bb|-(9)------(5)--(12)-------------------------------------------|
Gb|--9----5---7----12---(11)-------------------------------------|
Db|--9----7---7----12----12--------------------------------------|
Ab|--7----7---5----10----12--------------------------------------|
Eb|-------5--(5)---------10--------------------------------------|


Verse:
     E5 A5  D5
eb|--------------------------------------------------------------|
Bb|--------------------------------------------------------------|
Gb|--9------7----------------------------------------------------|
Db|--9---7--7----------------------------------------------------|
Ab|--7---7--5----------------------------------------------------|
Eb|--7---5--5----------------------------------------------------|


Pre-Chorus:
     B    A     B    D   A       B
eb|-(7)--(5)---(7)------(5)-----(7)------------------------------|
Bb|-(7)--(5)---(7)--(7)-(5)-----(7)------------------------------|
Gb|-(8)--(6)---(8)---7--(6)-----(8)------------------------------|
Db|--9----7-----9----7---7-------9-------------------------------|
Ab|--9----7-----9----5---7-------9-------------------------------|
Eb|--7----5-----7----5---5-------7-------------------------------|


Chorus 2: Same as first chorus, except gtr 1 plays this the first time.
eb|-12-12-12--12-12-12--12-12------------------------------------|
Bb|-12-12-12--12-12-12--12-12------------------------------------|
Gb|-------14b-------14b------------------------------------------|
Db|--------------------------------------------------------------|
Ab|--------------------------------------------------------------|
Eb|--------------------------------------------------------------|


Solo:
eb|---------------------------------------------------------------------|
Bb|------------------------------------------------------15-------------|
Gb|-------12h14-14b-14b-14b-(14)-12-11-12------12h14--14b---14b-(14)-12-|
Db|-12h14-----------------------------------14--------------------------|
Ab|---------------------------------------------------------------------|
Eb|---------------------------------------------------------------------|

Solo cont. | Gtr 2 plays G5 D5 C5 under solo.
eb|--------------------------------------------------------------|
Bb|--------------------------------------------------------------|
Gb|-12-14-12p11h12--12----12-14b-14b-14b-14b-14b-(14)-14---------|
Db|--------------------14----------------------------------------|
Ab|--------------------------------------------------------------|
Eb|--------------------------------------------------------------|
            
Hard to play? Try these video lessons and learn fast. | Correct




comments powered by Disqus
↑ Back to top | Tablatures and chords are parodies/interpretations of the original songs. You may use it for private study, scholarship, research or language learning purposes only