>
 >
Croatia Breaks

Croatia Breaks Guitar Tabs

Us Bombs - Croatia Breaks chords, tabs, tablatures, lyrics

Guitar lessons | Add/correct | Request | Top 50 tabs Artists:  A B C D E F G H I J K L M N O P Q R S T U V W X Y Z 0-9

Croatia Breaks Guitar Tabs – Us Bombs

CD, Sheet music, Poster

Do you like Croatia Breaks? Share with your friends now
Tabs
Band: U.S. Bombs
  F#                 B              C#             F#

Intro:
e----------------------------------------------------------------|
B----2--2-4-4-4p2-0-2--------------------------------------------|
G--3--------------------4-4-4p3----------------------------------|
D-------------------------------6-4------------------------------|
A------------------------------------6-6-6p4-2-4--2-2-2p1---1----|
E---------------------------------------------------------4---2--|

e----------------------------------------------------------|
B------2-4p2-2---------------------------------------------|
G---------------4-4-4p3------------------------------------|
D--2/4------------------6-4--------------------------------|
A----------------------------6-6-6p4-2-4------2-2-2p1------|
E-----------------------------------------4/6---------4-2--|

Verse 1:
I live a third world life, my people starve in poverty
     F#             B     C#                  F#
It's really nice to see a band mean what they say
  F#                B           C#                 F#
I know yer freedoms limited, ya seen how it is for me
F#                    B           C#              F#
Few that come through isn't often we just want to leave

Chorus:
    C#                    B
The propagandas horrible, fascist president
C#                             B
He cleaned out the hospital of cancer patients
C#                                  B
He took the whole fifth floor, he's done it twice before
      C#                     B           
There isn't any law for him, dictator has us chained

Intro (first line)

Verse 2:
F#            B              C#                F#
Matter of the factories, the workers don't get paid
    F#              B               C#             F#
For when we do it's spoiled food we share with family
    F#               B            C#          F#
For if we question authority, one day we dissappear, 
F#               B              C#                 F#
We just take the beansand dream escape and heading west

Chorus x1

Solo:
e-----------2----------9------9----------------------------------------|
B----2--2-4---4p2-0-2----9h11---11p9-----------------7-6---------------|
G--3---------------------------------10-11--8b-8b-8b-------------------|
D----------------------------------------------------------------------|
A---------------------------------------------------------2-2-2p1------|
E-----------------------------------------------------------------4-2--|

e-------------------11--11-11--9-6-------------------------------|
B-------6p4-4h6p4---12--12-12-11-7------------4------------------|
G-----4------------------------------4-4-4h6----6---4-4-4p3------|
D--4b-------------------------------------------------------6-4--|
A----------------------------------------------------------------|
E----------------------------------------------------------------|
                x4
e---9--9-9--9--9--|--17b18-b18-b18r---16b18-b18--b18-b18--b18--b18v--14--|
B--11-11-9h11-11--|------------------------------------------------------|
G-----------------|------------------------------------------------------|
D-----------------|------------------------------------------------------|
A-----------------|------------------------------------------------------|
E-----------------|------------------------------------------------------|
             x24?
e--------14-----|--16b18-b18r-14----|
B--14h16----16--|-------------------|
G---------------|-------------------|
D---------------|-------------------|
A---------------|-------------------|
E---------------|-------------------|





Comments


Popular Us Bombs tabs & chords
Just Like You Bass Tabs
Us Bombs Theme Bass Tabs
Go Back Home Drum Tabs
Retreads Drum Tabs
All The Bodies Tabs
Lunch In A Sack Tabs
Shot Down Tabs
Skater Dater Tabs
Tora! Tora! Tora! Tabs
Yer Country (Intro) Tabs


Song lyrics



↑ Back to top | Tablatures and chords are parodies/interpretations of the original songs. You may use it for private study, scholarship, research or language learning purposes only
© 2014 AZChords.com Contact us | Privacy policy | DMCA | Add/correct tabs | Request tabs | Top 50 tabs