» » »

All The Bodies Tabs (ver.1)

Artists:  A B C D E F G H I J K L M N O P Q R S T U V W X Y Z # 

All The Bodies Tabs (ver.1)

Us Bombs
Rating:
5/5 (1 vote)

Hard to play? Try these video lessons and learn fast.
                
Intro
|--------------------------------------|
|--------------------------------------|
|--------------------------------------|
|--6-6-6-6-6-6-6-6-6-6-6-6-6-6-6-6--6--|
|--6-6-6-6-6-6-6-6-6-6-6-6-6-6-6-6--6--|
|--4-4-4-4-4-4-4-4-4-4-4-4-4-4-4-4--4--|

Verse/Outro
|--------------------------------------|
|--------------------------------------|
|--6-6-6-6-6-6-6-6-8-8-8-8-8-8-8-8-----| x4
|--6-6-6-6-6-6-6-6-8-8-8-8-8-8-8-8--6--|
|--4-4-4-4-4-4-4-4-6-6-6-6-6-6-6-6--6--|
|-----------------------------------4--|

Chorus/Solo Rhythm
|--------------------------------------------------------------------|
|--------------------------------------------------------------------|
|----------------------------------6-6-6-6-6-6-6-6-6-6-6-6-6-6-6-----| x2
|--6-6-6-6-6-6-6-6-6-6-6-6-6-6-6-6-6-6-6-6-6-6-6-6-6-6-6-6-6-6-6-----|
|--6-6-6-6-6-6-6-6-6-6-6-6-6-6-6-6-4-4-4-4-4-4-4-4-4-4-4-4-4-4-4-----|
|--4-4-4-4-4-4-4-4-4-4-4-4-4-4-4-4-----------------------------------|

Solo
|-------------------------------------------8-8-9p8--------------8---------|
|------4-----4-----4-------------4-4-6-6------------9---9-9-9h11---9--8--9-|
|--6b8---6b8---6b8---6p5---------x-x-x-x-----------------------------------|
|------------------------6-6-6-6-6-6-6-6-66--------------------------------|
|--------------------------------------------------------------------------|
|--------------------------------------------------------------------------|

----11-9-8----------------------------| |-------------|
--9-----------------------------------| |-------------|
----------10-10b-10/13-10-8-----------| |-------------| played to end
---------------------------11-10-8-6--| |--6--6-8-10--|
--------------------------------------| |-------------|
--------------------------------------| |-------------|
            
Hard to play? Try these video lessons and learn fast. | Correct




comments powered by Disqus
↑ Back to top | Tablatures and chords are parodies/interpretations of the original songs. You may use it for private study, scholarship, research or language learning purposes only