>
 >
Wise Man

Wise Man Bass Tabs

Uriah Heep - Wise Man chords, tabs, tablatures, lyrics

Guitar lessons | Add/correct | Request | Top 50 tabs Artists:  A B C D E F G H I J K L M N O P Q R S T U V W X Y Z 0-9

Wise Man Bass Tabs – Uriah Heep

CD, Sheet music, Poster

Do you like Wise Man? Share with your friends now
Bass TabsChordsTabsUkulele
0:54

G-----------------------2----------------------7--------|
D---------------------2---2------------------7---7------|
A-0--0-2-4--4-5--4-0--------0---0--0-2-4--4-5------7/0--|
E-------------------------------------------------------|

1:07

G-------------------------------------------14-16--14-------------|
D-------4------------------------------14-16----------16-16/0-----|
A----------4--4-5--0--0-2--2-4-5---0------------------------------|
E--2--2-----------------------------------------------------------|

1:21

G-----------------------7-------------------------|
D-------5-4-2--0----0-7--7/4---5----5--4-2-0----0-|
A-----5-----------0---------------5-----------0---|
E--3----------------------------------------------|

1:33

G------------------------------------------------------14-16--14------------------|
D----------4--2--4----4---2---2--4----4-2---2--0--14-16----------16-14-16-14-16/5-|
A--------4----------4--------4-------4-----4--------------------------------------|
E-5/2--2--------------------------------------------------------------------------|

1:47

G---------------------7------2--------------------14-16--14------------------|
D-------------------7--7---2--2--------------14-16----------16-14-16-14-16/5-|
A-0-0--0-2-4-4--4-5------0------4--4-5--4-0----------------------------------|
E----------------------------------------------------------------------------|

2:00

G-------------------7---------------------2-4-2-------------------------------14-16--14-----------------|
D-----------------7---7----------------2--------4--4---------4-----4----14-16----------16-14-16-14-16/5-|
A-0--0-2-4--2-4-5-------8--------0--0--------------------0-4-----5----0---------------------------------|
E-------------------------8-1-2------------------------2------------------------------------------------|





Comments


Popular Uriah Heep tabs & chords
Easy Livin' 1 Bass Tabs
Rain Chords
Sunrise Chords
What Kind Of God Chords
Footprints In The Snow Tabs
Hanging Tree Tabs
Believe Ukulele
Hanging Tree Ukulele
Suicidal Man Ukulele
Sympathy Ukulele


Song lyrics



↑ Back to top | Tablatures and chords are parodies/interpretations of the original songs. You may use it for private study, scholarship, research or language learning purposes only
© 2014 AZChords.com Contact us | Privacy policy | DMCA | Add/correct tabs | Request tabs | Top 50 tabs