>
 >
Return To Fantasy

Return To Fantasy Bass Tabs

Uriah Heep - Return To Fantasy chords, tabs, tablatures, lyrics

Guitar lessons | Add/correct | Request | Top 50 tabs Artists:  A B C D E F G H I J K L M N O P Q R S T U V W X Y Z 0-9

Return To Fantasy Bass Tabs – Uriah Heep

CD, Sheet music, Poster

Do you like Return To Fantasy? Share with your friends now
Bass TabsChordsChords v2Ukulele
Title :Return To Fantasy
Album :Return To Fantasy
Tuning:EADG

I don't know every lick,but i know the most things.

Intro
G-------------------------------------------------|
D--------------------------------------4-----4---:|
A-3--3-3-3-3-2--2----5-5-1---1-1-1-1--4-4--4--4--:|
E---3---------2---3-3------1---------2----2----4--|

Last Time:
G---------------------------------------------|------------------------|
D--------------------------3-3-3----4-4-4-4-4-|------------------------|
A-3--3-3-3-3-2--2----5-5-1--------------------|3-3-3-3-33-3-333333333--|
E---3---------2---3-3-------------2-----------|------------------------|

Main Riff:
G------------------------------------------------|
D------------------------------------------------|
A-3-3-3-3-3-3-3-3-3-3-3-3-3-3-3-3-3-3-3-3-3-3-3-3|
E------------------------------------------------|
The lick in every main riff:
G---------------------3-3-5-5-6-6-6----------------|
D-----1-1-3-3-5-5-6-6------------------------------|
A-3-3-------------------------------3-3-3-3-3-3-3-3|
E--------------------------------------------------|

So these two above together.

Chorus : ''fantasy.......fantasy....''
G-------------------------------------------------------------|
D----------------------------------------------------4----4--:|
A-3-3-3-3-3-3-3-3-2-2-2-2--------1-1-1-1-1-1-1-1---4--4--4-4-:|
E------------------------3-3-3-3------------------2-----2-----|

Bridge: ''Travelling faster than lightning....closer than ever before''
G-----------------------------------|
D----------------------------------:|
A-3-3-3-3-3-3-3-3---------0-0-0-0--:|
E-----------------3-3-3-3-----------|

''we can go on for you....''
G-----------------------------------------------------------------|
D-----------------------------------------------------------------|
A-3-3-3-3-3-3-3-3-------------------------------------------------|
E----------------4-4-4-4-4-4-4-4--1-1-1-1-1-1-1-1-4-4-4-4-4-4-4-4-|

'' dreaming......TIME....dreaming...TIME...''
G------8888-------------------|
D-------------------5h7-5h7--:|
A--6-6------5-5-5-5----------:|
E-----------------------------|

''We can return....''
G-----------------------------------------------------------------|
D-5-5-5-5-5-5-5-5-2-2-2-2-2-2-2-2-7-7-7-7-7-7-7-7-5-5-5-5-5-5-5-5-|
A-----------------------------------------------------------------|
E-----------------------------------------------------------------|

G----------------------------|
D-3-3-3-3-3-3-3-3-2--2-2-2---|
A----------------------------|
E----------------------------|

Intro is played in C,Bb and F# with some licks between





Comments


Popular Uriah Heep tabs & chords
Gypsy Bass Tabs
Believe Chords
Lady In Black 4 Chords
Lady In Black 6 Chords
Rain Chords
The Park Chords
July Morning Tabs
The Golden Palace Tabs
Whats Within My Heart Tabs
Tales Ukulele


Song lyrics



↑ Back to top | Tablatures and chords are parodies/interpretations of the original songs. You may use it for private study, scholarship, research or language learning purposes only
© 2014 AZChords.com Contact us | Privacy policy | DMCA | Add/correct tabs | Request tabs | Top 50 tabs