» » »

Gypsy Bass tabs (ver.2)

Artists:  A B C D E F G H I J K L M N O P Q R S T U V W X Y Z # 

Gypsy Bass tabs (ver.2)

Uriah Heep
Rating:
0/5 (0 votes)

Tabs too difficult? Try these video lessons and learn fast.
                First Ken Hensley plays a couple of times and then you come in:

G|------------------------------------------|
D|--3-1--5-3-1------------------------------| x5
A|-3----3-----1-|     Last time ends A|-1-3-|
E|------------------------------------------|

And then

G|---------------------------------|
D|-3--1-----------5--3-1-----------|
A|-------3---rest--------1--3--rest| x4
E|---------------------------------|

G|-----------------------------|
D|-------3--6-----------3--6---|
A|-3--6----------3--6----------|
E|-----------------------------|

G|---------------------------------|
D|-------3-1-----------5-3-1-------|
A|--3333--------3333---------1-----| x4
E|---------------------------------|


G|-----------------|
D|------------1----|  x4
A|-3--3--3--33-----|
E|-----------------|

Only guitar and vocals

G|-----------|
D|-5-4--5-4--|
A|-----------|
E|-----------|

G-----------------|
D------------1----|  x2
A-3--3--3--33-----|
E-----------------|

Only Guitar and vocals

G|------------5-4---|
D|-5-4---rest-------|
A|------------------|
E|------------------|

G|----------------|
D|--------333-654-|
A|-333-666--------|
E|----------------|


G|-----------------|
D|------------1----|  x2
A|-3--3--3--33-----|
E|-----------------|

Guitar and vocals

G|-----------|
D|-5-4--5-4--|
A|-----------|
E|-----------|

G|-----------------|
D|------------1----|  x2
A|-3--3--3--33-----|
E|-----------------|

Guitar and vocal

G|------------5-4---|
D|-5-4---rest-------|
A|------------------|
E|------------------|

G|----------------|
D|--------333-654-|
A|-333-666--------|
E|----------------|

During the Hammond solos it varies between these two, I usually play both four times 
eachother throughout all of the solos, but vary as you like:

G|-----------------|
D|------------1----| x4
A|-3--3--3--33-----|
E|-----------------|

G|----3/5-3----|
D|---------3-1-| x4
A|-3-3---------|
E|-------------|

And there is just some sounds before everone comes in again and there's a guitar soloish thing:

G|-----------------|
D|------------1----| x6
A|-3--3--3--33-----|
E|-----------------|

Guitar and vocals

G|-----------|
D|-5-4--5-4--|
A|-----------|
E|-----------|

G|-----------------|
D|------------1----|  x4
A|-3--3--3--33-----|
E|-----------------|

G|------------5-4---|
D|-5-4---rest-------|
A|------------------|
E|------------------|

G|----------------|
D|--------333-654-|
A|-333-666--------|
E|----------------|

G|-----------------|
D|------------1----| x2
A|-3--3--3--33-----|
E|-----------------|

Rest

G|-----------------|
D|------------1----| x2
A|-3--3--3--33-----|
E|-----------------|

Rest

Outro thing, haven't managed to find out.


I'll be pleased if you have any corrections or something like that, 'cause this is my 
tab. And please not say that it's similar to the other tab, 'cause if you look close it's 
Thanks.
            
Tabs too difficult? Try these video lessons and learn fast.




comments powered by Disqus
↑ Back to top | Tablatures and chords are parodies/interpretations of the original songs. You may use it for private study, scholarship, research or language learning purposes only