>
 >
From Time To Time

From Time To Time Guitar Tabs

Uriah Heep - From Time To Time chords, tabs, tablatures, lyrics

Guitar lessons | Add/correct | Request | Top 50 tabs Artists:  A B C D E F G H I J K L M N O P Q R S T U V W X Y Z 0-9

From Time To Time Guitar Tabs – Uriah Heep

CD, Sheet music, Poster

Do you like From Time To Time? Share with your friends now
Tabs
-------------------------------------------------------------------------------
                             From Time To Time - Ken Hensley. 
-------------------------------------------------------------------------------

This song is off the Album, Proud Words On A Dusty Shelf.  Ken Hensley's first, and 
in my opinion, best solo album.  The Ken Hensley era of Uriah Heep was a 
magical time for the band. Also great bass work on this album by the 
late and great Gary Thain.  Quite a simple song to play with some lovely chord
changes.  It needs to be seriously aired again.
Again listen to the CD for the subtle changes...

Tuning:Standard.

    Intro repeat four times.....
e|------2-2-2-2------2-2-2-2------0-0-0-0------0-0-0-0--|
B|------3-3-3-3------3-3-3-3------0-0-0-0------0-0-0-0--|
G|------4-4-4-4------4-4-4-4------0-0-0-0------0-0-0-0--|
D|------4-4-4-4------4-4-4-4------2-2-2-2------2-2-2-2--|
A|--2-2-2-2-2-2--2-2-2-2-2-2------2-2-2-2------2-2-2-2--|
E|----------------------------0-0----------0-0----------|

    First verse again repeat four times.....            Then.....
e|------2-2-2-2------2-2-2-2------0-0-0-0------0-0-0-0-------3-3-3-3----|
B|------3-3-3-3------3-3-3-3------0-0-0-0------0-0-0-0-------3-3-3-3----|
G|------4-4-4-4------4-4-4-4------0-0-0-0------0-0-0-0-------0-0-0-0----|
D|------4-4-4-4------4-4-4-4------2-2-2-2------2-2-2-2-------0-0-0-0----|
A|--2-2-2-2-2-2--2-2-2-2-2-2------2-2-2-2------2-2-2-2-------2-2-2-2----|
E|----------------------------0-0----------0-0----------0-3-3-----------|

e|------0-0-0-0------2-2-2-2------2-2-2-2-------3-3-3-3------0-0-0-0----|
B|------2-2-2-2------3-3-3-3------3-3-3-3-------3-3-3-3------2-2-2-2----|
G|------2-2-2-2------4-4-4-4------4-4-4-4-------0-0-0-0------2-2-2-2----|
D|------2-2-2-2------4-4-4-4------4-4-4-4-------0-0-0-0------2-2-2-2----|
A|--0-0----------2-2-2-2-2-2--2-2-2-2-2-2-------2-2-2-2--0-0------------|
E|-----------------------------------------2-3-3------------------------|

                 Then into second verse.....                  * *
e|------2-2-2-2--------2-2-2-2------2-2-2-2------0-0-0-0------2-2-0--
B|------3-3-3-3--------3-3-3-3------3-3-3-3------0-0-0-0------0-0-0--|
G|------4-4-4-4--------4-4-4-4------4-4-4-4------0-0-0-0------0-0-0--|  Verse
D|------4-4-4-4--------4-4-4-4------4-4-4-4------2-2-2-2------2-2-2--|  Repeat as before.
A|--2-2-2-2-2-2--0-2-2-2-2-2-2--2-2-2-2-2-2------2-2-2-2------2-2-2--|
E|-------------------------------------------0-0----------0-0--------|



  Then the first break repeat.....
e|----0-0-0-0--0-0------2-2-2-2------2-2-2-2---------------|
B|----0-0-0-0--3-2------3-3-3-3------3-3-3-3---------------|
G|----1-1-1-1--2-2------4-4-4-4------4-4-4-4---------------|
D|----2-2-2-2--0-0------4-4-4-4------4-4-4-4---------------|
A|----2-2-2-2--0-0--2-2-2-2-2-2--2-2-2-2-2-2---------------|
E|-0-0-----------------------------------------------------|



   Finally the ending.....
e|--0--0-0-0-0--0--0-0-0-0------2-2-2-2------2-2-2-2--|
B|--3--3-3-3-3--0--0-0-0-0------3-3-3-3------3-3-3-3--|
G|--2--2-2-2-2--1--1-1-1-1------4-4-4-4------4-4-4-4--|
D|--0--0-0-0-0--2--2-2-2-2------4-4-4-4------4-4-4-4--| Etc Etc....
A|--0--0-0-0-0--2--2-2-2-2--2-2-2-2-2-2--2-2-2-2-2-2--|
E|--------------0--0-0-0-0----------------------------|

     
     Once I loved a pretty woman
     Till one day she up and ran
     Suppose I should have felt it coming
     But it's hard to think of her with another man
     Oh my lady I need you 
     Though from time to time I don't seem to

     Once the sun shone in the garden 
     Till my love took off and left me with the rain
     Now my heart and I are starting
     To forget it all and start out again
     Oh my lady I need you 
     Though from time to time I don't seem to

     My heart is hurting so bad
     And all the trees look so sad
     And all the love we could have had
     Oh from time to time
     Oh from time to time  

     The End.

===============================================================================





Comments


Popular Uriah Heep tabs & chords
Gypsy Bass Tabs
Traveller In Time Bass Tabs
Sunrise 1 Chords
Bird Of Prey 1 Tabs
Circle Of Hands 1 Tabs
Gypsy 1 Tabs
Love Machine Tabs
The Golden Palace Tabs
Beautiful Dream Ukulele
Sunrise Ukulele


Song lyrics



↑ Back to top | Tablatures and chords are parodies/interpretations of the original songs. You may use it for private study, scholarship, research or language learning purposes only
© 2014 AZChords.com Contact us | Privacy policy | DMCA | Add/correct tabs | Request tabs | Top 50 tabs