» » »

Feels Like Bass tabs (ver.1)

Artists:  A B C D E F G H I J K L M N O P Q R S T U V W X Y Z # 

Feels Like Bass tabs (ver.1)

Uriah Heep
Rating:
0/5 (0 votes)

Hard to play? Try these video lessons and learn fast.
                
Legend:

~ let ring
\ slide up
/ slide down


intro

G|-----------------|
D|-----------------|    X 4
A|-3~------6~------|
E|-----------------|

G|------------------------------|
D|--------1-0-------------------| X 4
A|-33-1-3-----3-1-33-1-3--------|
E|-----------------------33-1-3-|


Verse 1

I can feel...

G|---------------------|
D|-1---------1---------|
A|---3333333---3333333-|
E|---------------------|

I’m drinking...

G|-------------------------------------------|
D|---------------------1---------------------|
A|----------11111111-1---3-333333\6/33333333-|
E|-44444444----------------------------------|

Showing me...

G|-----------------------------|
D|-----------------------------|
A|-------------------------1-1-|
E|-44444444-1111-3333-4444-----|


Chorus

G|------------------------------|
D|--------1-0-------------------| 
A|-33-1-3-----3-1-33-1-3--------|
E|-----------------------33-1-3-|

G|------------------------|
D|--------1-0-------------|
A|-33-1-3-----3------1111-|
E|--------------4444------|



G|------------------------------|
D|--------1-0-------------------| 
A|-33-1-3-----3-1-33-1-3--------|
E|-----------------------33-1-3-|

G|---------------------------|
D|--------1-0----------------|
A|-33-1-3-----3------1-1\6/1-| 
E|--------------4444---------|


Verse 2

I was drifting...

G|---------------------|
D|-1---------1---------|
A|---3333333---3333333-|
E|---------------------|

I finally discovered...

G|-------------------------------------------|
D|---------------------1---------------------|
A|----------11111111-1---3-333333\6/33333333-|
E|-44444444----------------------------------|

Taking me...

G|-----------------------------|
D|-----------------------------|
A|-------------------------1-1-|
E|-44444444-1111-3333-4444-----|


Chorus

G|------------------------------|
D|--------1-0-------------------| 
A|-33-1-3-----3-1-33-1-3--------|
E|-----------------------33-1-3-|

G|------------------------|
D|--------1-0-------------|
A|-33-1-3-----3------1111-|
E|--------------4444------|



G|------------------------------|
D|--------1-0-------------------| 
A|-33-1-3-----3-1-33-1-3--------|
E|-----------------------33-1-3-|

G|---------------------------|
D|--------1-0----------------|
A|-33-1-3-----3------1-1\6/1-| 
E|--------------4444---------|



Middle part

G|------------------------------------------------------|
D|--------------------------------1---------------------|
A|-6-8-6-8-1-3---6-8-6-8-10-6-1-3---3-6-8-1-3---6-8-6-8-|
E|------------------------------------------------------|


Guitar solo

G|------------------------------|
D|--------3-2-------------------| X 4 
A|-55-3-5-----5-3-55-3-5--------|
E|-----------------------55-3-5-|


Verse 3

You love me...

G|---------------------|
D|-1---------1---------|
A|---3333333---3333333-|
E|---------------------|

No need to...

G|------------------------------------------|
D|------------------1---1-------------------|
A|----------1111-33---3---3-333333\6/333333-|
E|-44444444---------------------------------|

Telling me...

G|-----------------------------|
D|-----------------------------|
A|-------------------------1-1-|
E|-44444444-1111-3333-4444-----|


Chorus

G|------------------------------|
D|--------1-0-------------------| 
A|-33-1-3-----3-1-33-1-3--------|
E|-----------------------33-1-3-|

G|------------------------|
D|--------1-0-------------|
A|-33-1-3-----3------1111-|
E|--------------4444------|

G|------------------------------|
D|--------1-0-------------------| 
A|-33-1-3-----3-1-33-1-3--------|
E|-----------------------33-1-3-|

G|----------------------------|
D|--------1-0-----------------|
A|-33-1-3-----3------1-1\11/1-| 
E|--------------4444----------|
            
Hard to play? Try these video lessons and learn fast. | Correct




comments powered by Disqus
↑ Back to top | Tablatures and chords are parodies/interpretations of the original songs. You may use it for private study, scholarship, research or language learning purposes only