» » »

Urge Overkill, Take Me Tabs (ver.1)

Artists:  A B C D E F G H I J K L M N O P Q R S T U V W X Y Z # 

Take Me Tabs (ver.1)

Urge Overkill Tabs
 Rating:
4/5 (4 votes)
Take Me lessons Tabs too difficult? Try these video lessons and learn fast
                -------------------------------------------------------------------------------
                             Urge Overkill - Take Me
-------------------------------------------------------------------------------

Tuning: Tune down 1/2 a step (Eb Ab Db Gb Bb eb)

Distortion throughout

INTRO: 

note: this could probably be played elsewhere on the guitar but i've found that this sounds
best to me and is easiest to play.

(repeats)

e|---------0--------0----------------0--------0------------------------------|
B|------2--------4-----4----------0--------2-----2---------------------------|
G|---2--------4-----------4----0--------2-----------2------------------------|
D|---------------------------------------------------------------------------|
A|---------------------------------------------------------------------------|
E|---------------------------------------------------------------------------|

VERSE: 

(repeats)
e|---------------------------------------------------------------------------|
B|----9b10--7------7b8--5----------------------------------------------------|
G|----9b10--8------7b8--6----------------------------------------------------|
D|----------9-----------7----------------------------------------------------|
A|---------------------------------------------------------------------------|
E|---------------------------------------------------------------------------|

   "I just don't..."

CHORUS:

i.

e|--------------------------4-------------------------------------------------|
B|--------------------------4-------------------------------------------------|
G|----9/11---11-----4/6-----4h6--4--4h6---------------------------------------|
D|----x/x----x------x/x-----4h6--4--4h6---------------------------------------|
A|----7/9----9------2/4-----4----4--4-----------------------------------------|
E|-------------------------(4)------------------------------------------------|


    "Not long for this..."
ii.

e|----------------------------4-----------------------------------------------|
B|----------------------------4------------5----------------------------------|
G|----9--9/11--9----4/6--4----6--6--4--6---4--6-------------------------------|
D|----x--x/x---x----x/x--x----6--6--4--6---6--6-------------------------------|
A|----7--7/9---7----2/4--2----4--4--4--4---4--4-------------------------------|
E|----------------------------4-----------------------------------------------|

iii.  repeat part i

iv.

e|---------------------------------------------------------------------------|
B|---------------------------------------------------------------------------|
G|----9-----------4------6----4--4h6-----------------------------------------|
D|----9-----------4------6----4--4h6-----------------------------------------|
A|----7-----------2------4----4--4-------------------------------------------|
E|---(7)---------(2)----(4)--------------------------------------------------|

     "Take me back again..."


PRE-CHORUS (starts before second chorus):

e|---------4-------------2-------------5-------------5-----------------------|
B|--------5-5-----------2-2-------------5-------------5----------------------|
G|-------6---6---------3---3---------6---6---------5---5---------------------|
D|------6-----6-------4-----4-------7-----7-------7-----7--------------------|
A|-----4-------4-----4-------4-----7-------------7---------------------------|
E|------------------2-------------5-------------5----------------------------|


     "You can't sing when the song..."

BRIDGE-Y PART:

(repeats)

e|----------------------------------0----------------------------------------|
B|-----7p5----5---5-7-----5p3--------3---------------------------------------|
G|-----6----6---6---------4----4------4--------------------------------------|
D|-----7------------------5------5-----5-------------------------------------|
A|---------------------------------------------------------------------------|
E|---------------------------------------------------------------------------|

END:

e|--------------(0)----------------------------------------------------------|
B|----5-7-5------3-----------------------------------------------------------|
G|----6-6-6------4-----------------------------------------------------------|
D|----7-7-7---5--5-----------------------------------------------------------|
A|---------------------------------------------------------------------------|
E|---------------------------------------------------------------------------|


Well, that's it. I haven't transcribed it literally: parts repeat and there are 
minor variations here and there, so listen to the song for those, as well as the
strumming. don't know if it's 100% correct because i did it all by ear, but it sounds 
all right to me. corrections welcome.

| /  slide up
| \  slide down
| h  hammer-on
| p  pull-off
| ~  vibrato
| +  harmonic
| x  Mute note
===============================================================================
            
Submit corrections

comments powered by Disqus
↑ Back to top | Urge Overkill Tabs for Take Me. Lyrics for acoustic guitar and electric guitar. Tablatures and chords are parodies/interpretations of the original songs. You may use it for private study, scholarship, research or language learning purposes only