>
 >
Sister Havana

Sister Havana Guitar Tabs

Urge Overkill - Sister Havana chords, tabs, tablatures, lyrics

Guitar lessons | Add/correct | Request | Top 50 tabs Artists:  A B C D E F G H I J K L M N O P Q R S T U V W X Y Z 0-9

Sister Havana Guitar Tabs – Urge Overkill

CD, Sheet music, Poster

Do you like Sister Havana? Share with your friends now
ChordsTabsUkulele
-----------------------------------------------------------------------------
-----------------------------------------------------------------------------

Tuning: EADGBE

INTRO
e|------------------------------------|PLAY 4 TIMES
B|------------------------------------|
G|------------------------------------|
D|-7-7--3-3--10-10--5--5-5------------|
A|-5-5--1-1--8--8---3--3-3------------|
E|------------------------------------|

VERSE 1
e|------------------------------------------------------|
B|------------------------------------------------------|
G|------------------------------------------------------|
D|-7-7--3-3--10-10--5--5-5-----7----3-3--10-10--5--5-5--|
A|-5-5--1-1--8--8---3--3-3-----5----1-1--8--8---3--3-3--|
E|------------------------------------------------------|

e|-------------------------------------------------------------|
B|-------------------------------------------------------------|
G|-------------------------------------------------7-5---5-7---|
D|-7-7--3-3--10-10--5--5-5-----7----3-3--10-10--5------7-------|
A|-5-5--1-1--8--8---3--3-3-----5----1-1--8--8---3--------------|
E|-------------------------------------------------------------|

e|------------------------------------------------------|
B|------------------------------------------------------|
G|------------------------------------------------------|
D|-7-7--3-3--10-10--5--5-5-----7----3-3--10-10--5--5-5--|
A|-5-5--1-1--8--8---3--3-3-----5----1-1--8--8---3--3-3--|
E|------------------------------------------------------|

e|----------------------------------------------------------------|
B|--------------------------------------PLAY WITH DRUMS-----------|
G|----------------------------------------------------------------|
D|-7-7--3-3--10-10--5--5-5---7-7-3-7----7-7-7-7-7-7-7-7-----------|
A|-5-5--1-1--8--8---3--3-3---5-5-1-5----5-5-5-5-5-5-5-5-----------|
E|----------------------------------------------------------------|

CHORUS
e|------------------------------------|PLAY 4 TIMES
B|------------------------------------|
G|------------------------------------|
D|-7-7--3-3--10-10--5--5-5------------|
A|-5-5--1-1--8--8---3--3-3------------|
E|------------------------------------|

VERSE 2
e|-------------------------------------------------------------|
B|-------------------------------------------------------------|
G|-------------------------------------------------7-5---5-7---|
D|-7-7--3-3--10-10--5--5-5-----7----3-3--10-10--5------7-------|
A|-5-5--1-1--8--8---3--3-3-----5----1-1--8--8---3--------------|
E|-------------------------------------------------------------|

e|------------------------------------------------------|
B|------------------------------------------------------|
G|------------------------------------------------------|
D|-7-7--3-3--10-10--5--5-5-----7----3-3--10-10--5--5-5--|
A|-5-5--1-1--8--8---3--3-3-----5----1-1--8--8---3--3-3--|
E|------------------------------------------------------|

e|------------------------------------------------------|
B|------------------------------------------------------|
G|------------------------------------------------------|
D|-7-7--3-3--10-10--5--5-5-----7----3-3--10-10--5--5-5--|
A|-5-5--1-1--8--8---3--3-3-----5----1-1--8--8---3--3-3--|
E|------------------------------------------------------|

e|----------------------------------------------------------------|
B|--------------------------------------PLAY WITH DRUMS-----------|
G|----------------------------------------------------------------|
D|-7-7--3-3--10-10--5--5-5---7-7-3-7----7-7-7-7-7-7-7-7-----------|
A|-5-5--1-1--8--8---3--3-3---5-5-1-5----5-5-5-5-5-5-5-5-----------|
E|----------------------------------------------------------------|

CHORUS
e|------------------------------------|PLAY 4 TIMES
B|------------------------------------|
G|------------------------------------|
D|-7-7--3-3--10-10--5--5-5------------|
A|-5-5--1-1--8--8---3--3-3------------|
E|------------------------------------|

BRIDGE 1
e|------------------------------------------|
B|------------------------------------------|
G|------------------------------------------|
D|-5-6-7---5-6-7---5-6-7--7--7--7--7--7-----|
A|-3-4-5---3-4-5---3-4-5--5--5--5--5--5-----|
E|------------------------------------------|

SOLO 1
e|-----------------------------|PLAY 2 TIMES...           
B|-15-13-----------------------| 
G|-------15-14-12--------------|                     
D|----------------15-12-10-----|                     
A|-----------------------------|
E|-----------------------------|

...THEN PLAY THIS PART
e|-----------------------------------------------------|
B|-15-13-----------------------------------------------|
G|-------15-14-12----------------12-14~-12-14~---------|
D|----------------15-12-10-12-15-----------------------|
A|-----------------------------------------------------|
E|-----------------------------------------------------|

BRIDGE 2
e|---------------------------------|PLAY 2 TIMES
B|---------------------------------|
G|---------------------------------|
D|--7-9-10-12-14-12--10-9-7--------|
A|--5-7-8--10-12-10--8--7-5--------|
E|---------------------------------|

e|---------------------------------|PLAY 3 TIMES
B|---------------------------------|
G|---------------------------------|
D|--7-9-10-12-14-12--10-9----------|
A|--5-7-8--10-12-10--8--7----------|
E|---------------------------------|

e|---------------------------------|
B|---------------------------------|
G|---------------------------------|
D|--7-7-7---7-7-7-7-7-7-7-7--------|
A|--5-5-5---5-5-5-5-5-5-5-5--------|
E|---------------------------------|

CHORUS
e|------------------------------------|PLAY 6 TIMES
B|------------------------------------|
G|------------------------------------|
D|-7-7--3-3--10-10--5--5-5------------|
A|-5-5--1-1--8--8---3--3-3------------|
E|------------------------------------|

SOLO 2
e|-----------------------------|PLAY 2 TIMES...           
B|-15-13-----------------------| 
G|-------15-14-12--------------|                     
D|----------------15-12-10-----|                     
A|-----------------------------|
E|-----------------------------|

...THEN PLAY THIS PART
e|-----------------------------------------------------|
B|-15-13--------------------------------15-13----15~---|
G|-------15-14-12----------------12-14~-------14-------|
D|----------------15-12-10-12-15-----------------------|
A|-----------------------------------------------------|
E|-----------------------------------------------------|

OUTRO
e|-----------------------|PLAY 4 TIMES 
B|-15-13----15~~---------|AS THE SONG FADES OUT
G|-------14--------------|
D|-----------------------|
A|-----------------------|
E|-----------------------|





Comments


Popular Urge Overkill tabs & chords
Girl Youll Be A Woman Soon Chords
Sister Havana Chords
Girl, Youll Be A Woman Soon Tabs
Heaven 902 Tabs
Heaven 9021 Tabs
Heaven 90210 Tabs
Positive Bleeding 1 Tabs
Dropout Ukulele
Sister Havana Ukulele
Somebody Elses Body Ukulele


Song lyrics



↑ Back to top | Tablatures and chords are parodies/interpretations of the original songs. You may use it for private study, scholarship, research or language learning purposes only
© 2014 AZChords.com Contact us | Privacy policy | DMCA | Add/correct tabs | Request tabs | Top 50 tabs