» » »

Urge, Too Much Stereo Bass tabs (ver.1)

Artists:  A B C D E F G H I J K L M N O P Q R S T U V W X Y Z # 

Too Much Stereo Bass tabs (ver.1)

Urge Tabs
Rating:
0/5 (0 votes)
Too Much Stereo lessons Tabs too difficult? Try these video lessons and learn fast
                INTRO: THE E-8- IS PLAYED ONLY WHEN THE INTRO IS PLAYED IN DIFFERENT
PARTS OF THE SONG                                                     ENDING
G--------------------------------|--|-----------------------------------------
D--------------------------------|--|--------------------------------|--------
A--------------------------------|--|--------------------------------|--------
E-0-0-0-0-2-2-2-2-4-4-4-4-6-6-6-6|8-|0-0-0-2-2-2-2-------------------|-2-2----
B--------------------------------|--|---------------2-2-2-2-0-0-0-0--|-----0~-
VERSE:
G----------------------------------------------------------------
D----------------------------------------------------------------
A----------------------------------------------------------------
E-0-0-0-0-0-0-0-0-6-6-6-6-4-4-4-4-8-0-0-0-0-0-0-0----------------
B-------------------------------------------------2-2-2-2-0-0-0-0
PLAY INTRO WITHOUT ENDING
CHORUS:
G---------------------------------------------------------------
D---------------------------------------------------------------
A---------------------------------------------------------------
E-0-0-0-0-2-2-2-2-4-4-4-4----0-0-0-0-2-2-2-2--------------------
B------------------------2-0----------------4-4-4-4-6-6-6-8-8-8-
(2nd TIME DONT PLAY 6-6-6-8-8-8)
BRIDGE(BETWEEN CHORUS & NEXT VERSE):
G-------------
D-------------
A-------------
E-2-2-2-2-----
B---------2-0-
PLAY VERSE
PRE CHORUS ("Turn On!"):
G-----------------------------------------------
D-----------------------------------------------
A-----------------------------------------------
E-----------------------------------------------
B-2-2-xx-2-2-2-2-0-0-0-0-2-2-xx-0-0-0-0-2-2-2-2-
PLAY INTRO WITHOUT ENDING, PLAY CHORUS
BRIDGE 2:
G----------------------------------------------------
D----------------------------------------------------
A----------------------------------------------------
E---------4-4-4-4---4-4-4-4----4-4-4-4---------------
B-0~-0~-2~-------0~--------2~---------2~-------------
PLAY INTRO WITHOUT ENDING, PLAY CHORUS
            
Submit corrections

comments powered by Disqus
↑ Back to top | Urge Bass for Too Much Stereo. Lyrics for acoustic guitar and electric guitar. Tablatures and chords are parodies/interpretations of the original songs. You may use it for private study, scholarship, research or language learning purposes only