» » »

It's My Turn To Fly Tabs (ver.1)

Artists:  A B C D E F G H I J K L M N O P Q R S T U V W X Y Z # 

It's My Turn To Fly Tabs (ver.1)

Urge
Rating:
0/5 (0 votes)

Hard to play? Try these video lessons and learn fast.
                Standard Tuning

Intro/Verse
Bass plays this
e---------------------------------------------------------------------|
b---------------------------------------------------------------------|
g---------------------------------------------------------------------|
d-------------------5-5-5---------------------------------------------|
a-------------3-3-3-------5-5-5-5-6-5----------3-3-3-5-5-5------------|
e-////--5-5-5-------------------------6--5-5-5-------------3-3-3-////-|
  After first time, disregard the pickslides in the intro

Guitar
e--------------------------------------|
b-------8~-----------------------------|
g----------9~---------4-6-4------------|
d-7-77----------7-77--------4--7-7-7-7-|
a-7-77----------7-77-------------------|
e-5-55----------5-55-------------------|

Chorus
e-------------------------------------------------------------|
b-------------------------------------------------------------|
g-7-7-7-7-7-7-9-9-9-9-9-9-------------------------------------| 2x
d-7-7-7-7-7-7-9-9-9-9-9-9-10-10-10-10-10-10-10-10-10-10-10-10-|
a-5-5-5-5-5-5-7-7-7-7-7-7-10-10-10-10-10-10-10-10-10-10-10-10-|
e-5-5-5-5-5-5-7-7-7-7-7-7--8--8--8--8--8--8--8--8--8--8--8--8-|

e-------------------------------------------------------------------------|
b-------------------------------------------------------------------------|
g-7-7-7-7-7-7-9-9-9-9-9-9-------------------------------------------------|
d-7-7-7-7-7-7-9-9-9-9-9-9-10-10-10-10-10-10-10-10-10-10-10-10-9-9-9-9-9-9-|
a-5-5-5-5-5-5-7-7-7-7-7-7-10-10-10-10-10-10-10-10-10-10-10-10-9-9-9-9-9-9-|
e-5-5-5-5-5-5-7-7-7-7-7-7--8--8--8--8--8--8--8--8--8--8--8--8-7-7-7-7-7-7-|

Bridge
1st Part
e------------------10--10-11-10---------------------------------------|
b-10-13-10----10----------------11---10-13-10----10---13-13-11--10-13-|
g----------12---------------------------------12----------------------|
d---------------------------------------------------------------------|
a---------------------------------------------------------------------|
e---------------------------------------------------------------------|

2nd Part (Soft First time since bass plays it.  Louder Second time.)
e--------------------------------------------------|
b--------------------------------------------------|
g--------------------------------------------------| 2x
d--------------------------------------------------|
a---3---------5-5-5-6--5-------3--------3-3------3-|
e-5---5-3-5--------------6---5---5-3-5------6--5---|

Acoustic Chorus (Know the timing)
e-2-2-2-2--0-0-0-0--0-0-0-0-0-0-0-0-|
b-3-3-3-3--0-0-0-0--1-1-1-1-1-1-1-1-|
g-2-2-2-2--1-1-1-1--0-0-0-0-0-0-0-0-| 2x
d-0-0-0-0--2-2-2-2--2-2-2-2-2-2-2-2-|
a-0-0-0-0--2-2-2-2--3-3-3-3-3-3-3-3-|
e----------0-0-0-0--0-0-0-0-0-0-0-0-|

Chorus
Intro/Verse
            
Hard to play? Try these video lessons and learn fast. | Correct




comments powered by Disqus
↑ Back to top | Tablatures and chords are parodies/interpretations of the original songs. You may use it for private study, scholarship, research or language learning purposes only