» » »

Urban Oasis, Jess Drumer Tabs (ver.1)

Artists:  A B C D E F G H I J K L M N O P Q R S T U V W X Y Z # 

Jess Drumer Tabs (ver.1)

Urban Oasis Tabs
 Rating:
4/5 (4 votes)
Jess Drumer lessons Tabs too difficult? Try these video lessons and learn fast
1
                intro

----------------------------------3-3---3-3----3----------------------------do this
-1-1---1-1---1---3-3---3-3---3---------------------6-6--6-6---6-------------4 times
-----0-----0---0-----0-----0----0-----0------0--------0-----0---0-----------------

verse 1
bass line

choures
--3 3-3-3-3-3-------------------------------------------------------
--5-5-5-5-5-5-3-3-3-3-3-3-3--1-1-1-1-1-1-1--6-6-6-5-5-5-------do this 
--------------5-5-5-5-5-5-5--3-3-3-3-3-3-3--8-8-8-8-8-8-------4 times

then go 
verse 3


verse 2

choues

bass 
guitar solo

intro with bass

verse 3
choures

outro

|----------|ending
|----------|note
|----------|
|----------|
|----------|
|----------|
            
Submit corrections

comments powered by Disqus
↑ Back to top | Urban Oasis Tabs for Jess Drumer. Lyrics for acoustic guitar and electric guitar. 1 Tablatures and chords are parodies/interpretations of the original songs. You may use it for private study, scholarship, research or language learning purposes only