>
 >
What This Night Brings

What This Night Brings Guitar Tabs

Urban Dub - What This Night Brings chords, tabs, tablatures, lyrics

Guitar lessons | Add/correct | Request | Top 50 tabs Artists:  A B C D E F G H I J K L M N O P Q R S T U V W X Y Z 0-9

What This Night Brings Guitar Tabs – Urban Dub

CD, Sheet music, Poster

Do you like What This Night Brings? Share with your friends now
ChordsTabsUkulele
Urbandub - What This Night Brings

pages/Arista-Lucena/226729694026830

* = Palm mute
h = hammer
p = pulloff
t = tap
/ = slide
~ = letring/vibrato
(#)= ghost note/echo

Paalala: Wag gamitn ng walang pahintulot sa author ng tab:

Intro-
GtrI
|--------------------------------------------------------------------|
|--------------------------------------------------------------------|
|-44444~-------------------------------------------------------------|
|-44444~-------------0-222-222222-00-22-0-2-2-2----------------------|
|-22222~-7h9----5-7~-0-222-222222-00-22-0-2-2-2----------------------|
|------------9~------0-222-222222-00-22-0-2-2-2----------------------|
|GtrII
|--------------------------------------------------------------------|
|--------------------------------------------------------------------|
|--------------------------------------------------------------------|
|-99999~-------------0-222----55-44----------------------------------|
|-99999~-7h9----5-7~-0-222----------55-77-5-7-7-7--------------------|
|-99999~-----9~------0-222-22----------------------------------------|

GtrI
|--------------------------------------------------------------------|
|--------------------------------777-------888-777--7-7-7------------|
|-44444~------------------------------777----------------------------|
|-44444~------11--12-9-----7~----------------------------------------|2x
|-22222~--7h9-----------9--------------------------------------------|
|--------------------------------------------------------------------|
|GtrII
|--------------------------------------------------------------------|
|--------------------------------------------------------------------|
|--------------------------------------------------------------------|
|-99999~--------------------55-44------22-0-2-2-2--------------------|2x
|-99999~--7h9------5-7~-------------55-22-0-2-2-2--------------------|
|-99999~-------9~-------22-------------22-0-2-2-2--------------------|

GtrI
|--------------------------------------------------------------------|
|--------------------------------------------------------------------|
|--------------------------------------------------------------------|
|-10-10-10-10-10-10-10-10-10-10-10-10-10-10-10-10--------------------|
|-10-10-10-10-10-10-10-10-10-10-10-10-10-10-10-10--------------------|
|-10-10-10-10-10-10-10-10-10-10-10-10-10-10-10-10--------------------|
GtrII
|--------------------------------------------------------------------|
|--------------------------------------------------------------------|
|-17-17-17-17-16-16-16-16-12-12-12-12-12-12-12-12--------------------|
|--------------------------------------------------------------------|
|-15-15-15-15-14-14-14-14-10-10-10-10-10-10-10-10--------------------|
|--------------------------------------------------------------------|
09283150081
loc-Lucena City
Thanks for nothing...just thank me...lol
Verse-
GtrI
|--------------------------------------|
|--------------------------------------|
|--------------------------------------|
|-------------------------2-------2----|8x
|-5-5-5-5-5-5------2-2-2--2--2-2--2----|
|-5-5-5-5-5-5--00--2-2-2--2--2-2--2----|
  * * * * * *  **  * * *     * *

GtrII(0:36)
|--------------------------------------|
|--------------------------------------|
|--------------------------------------|
|-4-4/5-4------------------2-x-222-----|4x
|---------7p5--5p2----2-2--2-x-222-----|
|------------------5--2-2--2-x-222-----|
                      * *   

PreChorus-
GtrS
|--------------------------------------|
|--------------------------------------|
|--------------------------------------|
|---7~-------------2~------------------|
|---7~-------------2~------------------|
|---7~-------------2~------------------|
     
09283150081
loc-Lucena City
Thanks for nothing...just thank me...lol
Chorus-
GtrI
|-----------------------------------|--------------------------------------|
|-----------------------------------|--------------------------------------|
|-----------------------------------|--------------------------------------|
|-4-4-4-4-7-7-7---2-2-2-2--5-5-5-5--|-4-4-4-4-7-7-7---2-2-2-2--55555555----|
|-2-2-2-2-5-5-5---2-2-2-2--5-5-5-5--|-2-2-2-2-5-5-5---2-2-2-2--55555555----|
|-----------------2-2-2-2--5-5-5-5--|-----------------2-2-2-2--55555555----|
GtrII
|-----------------------------------|--------------------------------------|
|-----------------------------------|--------------------------------------|
|-----------------------------------|-------------------------121212121212-|
|-4-4-4-4-7-7-7---2-2-2-2--5-5-5-5--|-4-4-4-4-7-7-7---2-2-2-2--------------|
|-2-2-2-2-5-5-5---2-2-2-2--5-5-5-5--|-2-2-2-2-5-5-5---2-2-2-2-101010101010-|
|-----------------2-2-2-2--5-5-5-5--|-----------------2-2-2-2--------------|

GtrI
|-----------------------------------|------------------------------------------|
|-----------------------------------|------------------------------------------|
|-----------------------------------|------------------11-11-11-11-11-11-11-11-|
|-4-4-4-4-7-7-7---2-2-2-2--5-5-5-5--|-4-4-4-4-7-7-7----------------------------|
|-2-2-2-2-5-5-5---2-2-2-2--5-5-5-5--|-2-2-2-2-5-5-5----------------------------|
|-----------------2-2-2-2--5-5-5-5--|------------------------------------------|
GtrII
|-----------------------------------|------------------------------------|
|-----------------------------------|------------------------------------|
|-11111111-1212-14-9-9-9-9-7-7-7-7--|-11111111-1212-14-------------------|
|-----------------------------------|------------------2~----------------|
|-9-9-9-9--1010-12-7-7-7-7-5-5-5-5--|-9-9-9-9--1010-12-2~----------------|
|-----------------------------------|------------------2~----------------|


Paalala: Wag gamitn ng walang pahintulot sa author ng tab:just email or txt
09283150081
loc-Lucena City
Thanks for nothing...just thank me...lol

Interlude(favorite part)
GtrI
|--------------------------------------------------------------------|
|--------------------------------------------------------------------|
|-11-----------------------------------------------------------------|
|----7-9~-------11~--12-9~---7~~~~~~~~~~~~~~~~~~~~~~~~~~~~~~~~~~~~~--|
|-----------7/9------------9~----------------------------------------|
|--------------------------------------------------------------------|
|
GtrII
|--------------------------------------------------------------------|
|-----------------------------------------12~(12)--------------------|
|---------------------------------11~(11)---------12~-14~------------|
|--------------------------------------------------------------------|
|--------------------------------------------------------------------|
|--------------------------------------------------------------------|

GtrI
|--------------------------------------------------------------------|
|--------------------------------------------------------------------|
|-t14p0----------------------t14p0----------h7-----------------------|
|-------7h9---t16--p9p7h9-----------7h9-t14--------------------------|2x
|--------------------------------------------------------------------|
|--------------------------------------------------------------------|
|GtrII
|--------------------------------------------------------------------|
|-----------------------------------------12~(12)~(12)~(12)~(12)-----|
|----11~(11)------(11)-----------------------------------------------|
|--------------------------------------------------------------------|
|--------------------------------------------------------------------|
|--------------------------------------------------------------------|
VerseII
GtrII
|------------------------------------------------------------------------|
|----------8(8)8(8)-7(7)7(7)-8(8)8(8)---------8(8)8(8)-7(7)7(7)-8(8)8(8)-|
|-7(7)7(7)----------------------------7(7)7(7)---------------------------|
|------------------------------------------------------------------------|2x
|------------------------------------------------------------------------|
|------------------------------------------------------------------------|
  *   *    *   *    *   *    *   *    *   *    *   *    *   *    *   *    
GtrI
|-------------------------------------------------------------------------|
|-------------------------------------------------------------------------|
|-------------------------------------------------------------------------|
|-99999999-77777777-55555555-77777777-99999999-77777777-55555555-77777777-|
|-99999999-77777777-55555555-77777777-99999999-77777777-55555555-77777777-|
|-99999999-77777777-55555555-77777777-99999999-77777777-55555555-77777777-|
GtrII
|--------------------------------------------------------------------|
|--------------------------------------------------------------------|
|----------7777-9999-11-7-(2x)-----------7777-9999-/16-16-16-16------|
|-99999999---------------------999999999-----------------------------|
|--------------------------------------------------------------------|
|--------------------------------------------------------------------|

GtrS
|--------------------------------------|
|--------------------------------------|
|--------------------------------------|
|---7~-------------2~------------------|
|---7~-------------2~------------------|
|---7~-------------2~------------------|
09283150081
loc-Lucena City
Thanks for nothing...just thank me...lol
Chorus-
GtrI
|-----------------------------------|--------------------------------------|
|-----------------------------------|--------------------------------------|
|-----------------------------------|--------------------------------------|
|-4-4-4-4-7-7-7---2-2-2-2--5-5-5-5--|-4-4-4-4-7-7-7---2-2-2-2--55555555----|
|-2-2-2-2-5-5-5---2-2-2-2--5-5-5-5--|-2-2-2-2-5-5-5---2-2-2-2--55555555----|
|-----------------2-2-2-2--5-5-5-5--|-----------------2-2-2-2--55555555----|
GtrII
|-----------------------------------|--------------------------------------|
|-----------------------------------|--------------------------------------|
|-----------------------------------|-------------------------121212121212-|
|-4-4-4-4-7-7-7---2-2-2-2--5-5-5-5--|-4-4-4-4-7-7-7---2-2-2-2--------------|
|-2-2-2-2-5-5-5---2-2-2-2--5-5-5-5--|-2-2-2-2-5-5-5---2-2-2-2-101010101010-|
|-----------------2-2-2-2--5-5-5-5--|-----------------2-2-2-2--------------|

GtrI
|-----------------------------------|--------------------------------------|
|-----------------------------------|--------------------------------------|
|-----------------------------------|--------------------------------------|
|-4-4-4-4-7-7-7---2-2-2-2--5-5-5-5--|-4-4-4-4-7-7-7---2-2-2-2--22222222----|
|-2-2-2-2-5-5-5---2-2-2-2--5-5-5-5--|-2-2-2-2-5-5-5---2-2-2-2--22222222----|
|-----------------2-2-2-2--5-5-5-5--|-----------------2-2-2-2--22222222----|
GtrII
|-----------------------------------|------------------------------------|
|-----------------------------------|------------------------------------|
|-11111111-1212-14-9-9-9-9-7-7-7-7--|-11111111-1212-14-9-9-9-9-9-9-9-9---|
|-----------------------------------|------------------------------------|
|-9-9-9-9--1010-12-7-7-7-7-5-5-5-5--|-9-9-9-9--1010-12-7-7-7-7-7-7-7-7---|
|-----------------------------------|------------------------------------|

Bridge
GtrI
|--------------------------------------------------------------------|
|--------------------------------------------------------------------|
|--------------------------------------------------------------------|
|-1010101010101010-999999--9-7~---1010101010101010-999999--9-7~------|
|-1010101010101010-999999--9-7~---1010101010101010-999999--9-7~------|
|-1010101010101010-999999--9-7~---1010101010101010-999999--9-7~------|
GtrII
|---------------------------------------|
|---------------------------------------|
|-1717171717171719-161616161616-16-14---|
|---------------------------------------|2x
|-1515151515151517-141414141414-14-12~--|
|---------------------------------------|

GtrI
|--------------------------------------------------------------------|
|--------------------------------------------------------------------|
|--------------------------------------------------------------------|
|-2-2-2-2-2-2-2-2-5-5-5-5-5-5-5-5--1010101010101010------7~----5~----|
|-2-2-2-2-2-2-2-2-5-5-5-5-5-5-5-5--1010101010101010------7~----5~----|
|-2-2-2-2-2-2-2-2-5-5-5-5-5-5-5-5--1010101010101010------7~----5~----|
GtrII
|--------------------------------------------------------------------|
|-/88888888-1212-----------------------13-12-------13-12/------------|
|---------------121111-121212----12-14----------14-------------------|
|--------------------------------------------------------7~----5~----|
|--------------------------------------------------------7~----5~----|
|--------------------------------------------------------7~----5~----|
09283150081
loc-Lucena City
Thanks for nothing...just thank me...lol
Chorus-
GtrI
|-----------------------------------|--------------------------------------|
|-----------------------------------|--------------------------------------|
|-----------------------------------|--------------------------------------|
|-4-4-4-4-7-7-7---2-2-2-2--5-5-5-5--|-4-4-4-4-7-7-7---2-2-2-2--55555555----|
|-2-2-2-2-5-5-5---2-2-2-2--5-5-5-5--|-2-2-2-2-5-5-5---2-2-2-2--55555555----|
|-----------------2-2-2-2--5-5-5-5--|-----------------2-2-2-2--55555555----|
GtrII
|-----------------------------------|--------------------------------------|
|-----------------------------------|--------------------------------------|
|-----------------------------------|-------------------------121212121212-|
|-4-4-4-4-7-7-7---2-2-2-2--5-5-5-5--|-4-4-4-4-7-7-7---2-2-2-2--------------|
|-2-2-2-2-5-5-5---2-2-2-2--5-5-5-5--|-2-2-2-2-5-5-5---2-2-2-2-101010101010-|
|-----------------2-2-2-2--5-5-5-5--|-----------------2-2-2-2--------------|

GtrI

|-----------------------------------|
|-----------------------------------|
|-----------------------------------|
|-4-4-4-4-7-7-7---2-2-2-2--5-5-5-5--|2x
|-2-2-2-2-5-5-5---2-2-2-2--5-5-5-5--|
|-----------------2-2-2-2--5-5-5-5--|
GtrII
|-------------------------------------------|
|-------------------------------------------|
|---------11------------------------121212--|
|-9--9h12---12-0-12p9-11/12-2222-55---------|
|-9------------0------------2222-55-101010--|
|-9------------0------------2222-55---------|

|-------------------------------------------|
|-------------------------------------------|
|---------11--------------------------------|
|-9--9h12---12-0-7h9--12----2-2-2-2-2-2-2-2-|
|-9------------0------------2-2-2-2-2-2-2-2-|
|-9------------0------------2-2-2-2-2-2-2-2-|


Outro-
|--------------------------------------------------------------------|
|--------------------------------------------------------------------|
|--------------------------------------------------------------------|
|--------------------5----2~-----------------------5------2~---------|
|-7h9----7-5~-0------5--0-2~----7h9----7-5~-0------5------2~---------|
|-----9~------0-5555-5--0-2~--------9~------0-5555-5------2~---------|
              * ****    *                   * ****


Paalala: Wag gamitn ng walang pahintulot sa author ng tab:just email or txt
09283150081
loc-Lucena City
Thanks for nothing...just thank me...lol





Comments


Popular Urban Dub tabs & chords
Evidence Bass Tabs
Would You Go Chords
A New Tattoo 1 Tabs
A New Tattoo Intro Tabs
Come 1 Tabs
Fallen On Deaf Ears 4 Tabs
A New Tatoo Ukulele
Face In The Woods Ukulele
Gravity Ukulele
Home Ukulele


Song lyrics



↑ Back to top | Tablatures and chords are parodies/interpretations of the original songs. You may use it for private study, scholarship, research or language learning purposes only
© 2014 AZChords.com Contact us | Privacy policy | DMCA | Add/correct tabs | Request tabs | Top 50 tabs