» » »

A Method To Chaos Tabs (ver.2)

Artists:  A B C D E F G H I J K L M N O P Q R S T U V W X Y Z # 

A Method To Chaos Tabs (ver.2)

Urban Dub
Rating:
5/5 (1 vote)

Hard to play? Try these video lessons and learn fast.
                -------------------------------------------------------------------------------
                             A Method to Chaos - Urbandub
-------------------------------------------------------------------------------
YM: killer24p

Tuning: (drop D flat a.k.a. Urbandub tuning)

INTRo

guitar 1
|-----------|
|-----------|
|-----------|
|--7---7\---|
|--7---7\---|
|--7---7\---|


Guitar 2
|-------------------------------------|
|-------------------------------------|
|--2--0-0-0--4--0-0-0--5--0-0-0--4----| 3x then
|-------------------------------------| 
|-------------------------------------|
|-------------------------------------|

|----------------8-8-8-8--------------|
|----------------x-x-x-x--------------|
|--2--0-0-0--4---5-5-5-5--------------|
|-------------------------------------| 
|-------------------------------------|
|-------------------------------------|


Guitar 1
|----------------------------------------------------|
|--101010101010101010101010--------------------------|
|--x-x-x-x-x-x-x-x-x-x-x-x--9-9-9-9-9-9-9-9/10101010-|
|--7-7-7-7-7-7-7-7-7-7-7-7--x-x-x-x-x-x-x-x-x-x-x-x--|
|---------------------------7-7-7-7-7-7-7-7/8-8-8-8--|
|----------------------------------------------------|

|-----------------------------------------------|
|-----------------------------------------------|
|--5-5-5-5-5-5-5-5-5-5-5-5-5/7-7-7-7-7-7-7------|
|--x-x-x-x-x-x-x-x-x-x-x-x-x-x-x-x-x-x-x-x------|
|--3-3-3-3-3-3-3-3-3-3-3-3-3/5-5-5-5-5-5-5------|
|-----------------------------------------------|

|---2---4---5---------------|
|----------------1/3--------|
|---------------------------| 4x
|---------------------------|
|---------------------------|
|---------------------------|

guitar 2 (repeat 2x)
|------------------------------|
|------------------------------|
|---2---4---5---4-----0h2------|2x
|------------------------------|
|------------------------------|
|------------------------------|

|------------------------------|
|------------------------------|
|---2---0----------------------|2x
|-----------2---0----0h2-------|
|------------------------------|
|------------------------------|

Both
|------------------------------|
|------------------------------|
|---2-2-2-2--5\----------------|
|---2-2-2-2--5\----------------|
|---0-0-0-0--3\----------------|
|------------------------------|



VERSE repeat 2x

guitar1
|---------------------------------------|
|---------------------------------------|
|------------------2----2----5-5-5-5-5--|
|---3------3-------2----2----x-x-x-x-x--|
|---3------3-------0----0----3-3-3-3-3--|
|---3------3----------------------------|

guitar2
|-------------------------------------------8-8-8-8-8-------|
|-------------------------------------------x-x-x-x-x-------|
|------------------5--4--5--4--0h2---5--4---5-5-5-5-5-------|
|---3------3------------------------------------------------|
|---3------3------------------------------------------------|
|---3------3------------------------------------------------|


PRE-cHORUS

|----------------------------------------------------------------------------------|
|----------------------------------------------------------------------------------|
|--------------------------------------2-2-2-2-2-2-2-2-2-2--5-5-5-5-5-5-5-5-5------|
|--3--3-3--3--3-3---0--0-0--0--0-0-----2-2-2-2-2-2-2-2-2-2--5-5-5-5-5-5-5-5-5------|
|--3--3-3--3--3-3---0--0-0--0--0-0-----0-0-0-0-0-0-0-0-0-0--3-3-3-3-3-3-3-3-3------|
|--3--3-3--3--3-3---0--0-0--0--0-0-------------------------------------------------|

|------------------------------|
|------------------------------|
|------------------------------|
|--3-3-3-3-3--5-5-5-5-5--------|
|--3-3-3-3-3--5-5-5-5-5--------|
|--3-3-3-3-3--5-5-5-5-5--------|

CHORUS
|----------------------------------------------------|
|--101010101010101010101010--------------------------|
|--x-x-x-x-x-x-x-x-x-x-x-x--9-9-9-9-9-9-9-9/10101010-|
|--7-7-7-7-7-7-7-7-7-7-7-7--x-x-x-x-x-x-x-x-x-x-x-x--|
|---------------------------7-7-7-7-7-7-7-7/8-8-8-8--|
|----------------------------------------------------|

|-----------------------------------------------|
|-----------------------------------------------|
|--5-5-5-5-5-5-5-5-5-5-5-5-5/7-7-7-7-7-7-7------|
|--x-x-x-x-x-x-x-x-x-x-x-x-x-x-x-x-x-x-x-x------|
|--3-3-3-3-3-3-3-3-3-3-3-3-3/5-5-5-5-5-5-5------|
|-----------------------------------------------|






| /  slide up
| \  slide down
| h  hammer-on
| p  pull-off
| ~  vibrato
| +  harmonic
| x  Mute note
===============================================================================
            
Hard to play? Try these video lessons and learn fast. | Correct




comments powered by Disqus
↑ Back to top | Tablatures and chords are parodies/interpretations of the original songs. You may use it for private study, scholarship, research or language learning purposes only