» » »

Urban Dub, Life Is Easy Bass tabs (ver.1)

Artists:  A B C D E F G H I J K L M N O P Q R S T U V W X Y Z # 

Life Is Easy Bass tabs (ver.1)

Urban Dub Tabs
 Rating:
4.2/5 (5 votes)
Life Is Easy lessons Tabs too difficult? Try these video lessons and learn fast
1
                Intro- C Em (continuous)

|------------1212-1414---------------------------------------|
|---10101010-----------141414141414----12-12-----------------|
|------------------------------------------------------------|2x
|------------------------------------------------------------|

or
|------------------------------------------------------------|
|----------55-77---------------------------------------------|
|---3333-----------777777-------55---------------------------|2x
|------------------------------------------------------------|



Verse- C Em (continuous)

|------------1212-1414---------------------------------------|
|---10101010-----------141414141414----12-12-----------------|
|------------------------------------------------------------|
|------------------------------------------------------------|


or
|------------------------------------------------------------|
|----------55-77---------------------------------------------|
|---3333-----------777777-------55---------------------------|2x
|------------------------------------------------------------|



Refrain-Dm Em
|----------9-10------------------------------4h5p4--2-----|
|------7--------10--7---5--55-55----------------------5---|
|--5~-----------------------------------------------------|
|---------------------------------------------------------|



Chorus-

C Em (continuous)

|------------1212-1414---------------------------------------|
|---10101010-----------141414141414----12-12-----------------|
|------------------------------------------------------------|2x
|------------------------------------------------------------|


or
|------------------------------------------------------------|
|----------55-77---------------------------------------------|
|---3333-----------777777-------55---------------------------|2x
|------------------------------------------------------------|

  D                           Em
|------------------------------------------------------------|
|------------------------------------------------------------|
|--5--55---55--55--------------7~----------------------------|
|------------------------------------------------------------|

do verse-
refrain
Chorus-

outro(chorus)-
|------------------------------------------------------------|------|
|------------------------------------------------------------|------|
|--33333333-77777777--33333333-77777777--33333333-77777777---|-3-3~-|
|------------------------------------------------------------|------|

C-(xxx988)
Em-(xxx987)
Dm-(xxx765)

taymingan nyu na lang..hehehe
            
Submit corrections

comments powered by Disqus
↑ Back to top | Urban Dub Bass for Life Is Easy. Lyrics for acoustic guitar and electric guitar. 1 Tablatures and chords are parodies/interpretations of the original songs. You may use it for private study, scholarship, research or language learning purposes only