» » »

Urban Dub, Its Over Tabs (ver.1)

Artists:  A B C D E F G H I J K L M N O P Q R S T U V W X Y Z # 

Its Over Tabs (ver.1)

Urban Dub Tabs
 Rating:
4/5 (4 votes)
Its Over lessons Tabs too difficult? Try these video lessons and learn fast
                -------------------------------------------------------------------------------
                             It's Over - Urbandub
-------------------------------------------------------------------------------

Tuning: Drop C#

Intro
e|---------------------------------------------------------------------------|
B|---------------------------------------------------------------------------|
G|--9---9---9-6---6---6--9----9------6-------9-------6------6-6h7p6----------|
D|--7-7---7---4-4---4----7--7---7----4-----7-----7-------7-------------------|
A|--5---------2----------5--------5--2---5-----5---5---5---5-----------------|
E|---------------------------------------------------------------------------|

e|---------------------------------------------------------------------------|
B|---------------------------------------------------------------------------|
G|-----9/11-9----------------------------------------------------------------|
D|---7--------2-4------------------------------------------------------------|
A|-5-------------------------------------------------------------------------|
E|---------------------------------------------------------------------------|


verse:
e|---------------------------------------------------------------------------|
B|---------------------------------------------------------------------------|
G|--7----4-------------------------------------------------------------------|
D|--7----4------5------------------------------------------------------------|
A|--5----2------5--9-7-5-----------------------------------------------------|
E|--------------5------------------------------------------------------------|

Intro2
e|---------------------------------------------------------------------------|
B|---------------------------------------------------------------------------|
G|-------9-------6------6-6h7p6-----9----------------------------------------|
D|-----7-----7-------7------------7----2--4----------------------------------|
A|---5-----5---5---5---5--------5--------------------------------------------|
E|---------------------------------------------------------------------------|


verse 2:
e|---------------------------------------------------------------------------|
B|---------------------------------------------------------------------------|
G|--7---4--------------------------------------------------------------------|
D|--7---4---5---3------------------------------------------------------------|
A|--5---2---5---3------------------------------------------------------------|
E|----------5---3------------------------------------------------------------|

Chorus:
e|---------------------------------------------------------------------------|
B|---------------------------------------------------------------------------|
G|---------------------------------------------------------------------------|
D|---12---9------------------------------------------------------------------|
A|---12---9------------------------------------------------------------------|
E|---12---9------------------------------------------------------------------|

intro2
Verse2
chorus



pakinggan niyo nlng yung timing
kung may mali pakicomment nalang
don't forget to rate  \m/

************************************

| /   slide up
| \   slide down
| h   hammer-on
| p   pull-off
| ~   vibrato
| +   harmonic
| x   Mute note
| b   Bend
| pb  Pre-bend
| br  Bend release
| pbr Pre-bend release
| brb Bend release bend

************************************



Now I know the truth about you 
Found out the hard way 
You've been lying to me the whole time 
But it's okay, I almost cried. 

Now I'm glad it's done, you and me 
I'm moving on 
You can take your daggers away 
Off my back, 
For now, I'm alright 
Cuz now we're through 
I'd like to say to you... 
It's over. 

I've changed a lot since you've been gone 
It took some time 
I'm not so trusting anymore, so thanks a lot 
For now, I'm okay 
Cuz now we're through 
I'd like to say to you... 
It's over.
            
Submit corrections

comments powered by Disqus
↑ Back to top | Urban Dub Tabs for Its Over. Lyrics for acoustic guitar and electric guitar. Tablatures and chords are parodies/interpretations of the original songs. You may use it for private study, scholarship, research or language learning purposes only